Oops, an error
Loading. Please wait.

Today Tab

66 views 1 this week
1 commentread comment
1 2 3 4 5
1 last vote to show rating
add to favorites
launch autoscroll
font size
0
reset
how to read this tab
guitar tuner
Autoscroll
slow
fast
+/-
esc
set tempo
stop
Help us to improve Ultimate-Guitar.com Take our survey!
×
Author
Difficulty
novice
This is another awesome song done by leaf-fat and its not that hard to play, so here it 
BTW I am 100% sure it’s correct!!!(I hope…)LEAF-FAT ROX!!!
Enjoy!!!


Intro/solo

e|-3-3-5-3---3-3-5-3---3-3-5-3---3-3-5-7-5-3-------------|
B|--3---------3---------3---------3----------------------|
G|-------------------------------------------------------|
D|-------------------------------------------------------|
A|-------------------------------------------------------|
E|-------------------------------------------------------|


Verse
    C5   G5    A5    C5    D5
e|-------------------------------------------------------|
B|-------------------------------------------------------|
G|--5-----------------5-----7----------------------------|
D|--5-----5-----7-----5-----7----------------------------|
A|--3-----5-----7-----3-----5----------------------------|
E|--3-----3-----5-----3-----5----------------------------|


Chorus

   G5    A5    C5    D5
e|-------------------------------------------------|
B|-------------------------------------------------|
G|--------------5-----7----------------------------|
D|--5-----7-----5-----7----------------------------|
A|--5-----7-----3-----5----------------------------|
E|--3-----5-----3-----5----------------------------|
Suggest correction
Give kudos to tab author, rate the tab!
1 2 3 4 5
comments
print report bad tab
1 comment total.
0 reply
K.Lemon 10 Jun 02, 2007 04:50 PM

Darn it! I always wanted to figure the tabs of Today! Congrats mate!!:P

guest
You may want to rate the tab now too:
select rating
Wanna post a correction for this tab? Suggest correction