Oops, an error
Loading. Please wait.

Sad Road To The Sea Tab

16 views 6 this week
no commentswrite comment
1 2 3 4 5
3 more votes to show rating
add to favorites
launch autoscroll
font size
0
reset
how to read this tab
guitar tuner
Autoscroll
slow
fast
+/-
esc
set tempo
stop
Help us to improve Ultimate-Guitar.com Take our survey!
×
Author
-------------------------------------------------------------------------------
                            Sad road to the sea - Leaf Hound
-------------------------------------------------------------------------------
Tabbed by: Davide Bencivinni
E-mail: davidebncv@libero.it

Tuning: standard (EADGBe)

Chords for the song:

    E   A   G   C   D   F#  B   D5  E5  F#5 (last three played by distorted guitar)
e |-0---0---3---0---2---2---2-------------|
B |-0---2---3---1---3---2---4-------------|
G |-1---2---0---0---2---3---4---7---9--11-|
D |-2---2---0---2---0---4---4---7---9--11-|
A |-2---0---2---3-------4---2---5---7---9-|
E |-0-------3-----------2-----------------|


[Intro]

(E D A) x2

[1st verse]

E      D                 A E   D       A
Make me a road, a road for all to sea
E       D                   A   E  D     A
Built of thoughts, to last me eternally
       A         C
Please make me a road
      G        A         A     C
Your sad road to the sea

[2nd verse]

E           D             A  E  D       A
Take off my load, my load is killing me
E           D            G     E D    A  
This load of thought is really agony
      A            C
I'll make my last stand
     G           A         A     E
With all that's left of me

[3rd verse]

E5
Sad road where are you taking me
E5
Along the coast of eternity
E5
I don't know what's become of me
E5
My sad road to the sea
D5  E5          D5  E  D  A
My sad road to the sea 

[1st solo]

E D A
        ~~
                           ~~~      ~~                  ~~                                     ~~
e |------------------------------------------9-9-12-9-12b14------9-------12------------------------|
B |---------10-12-10-9--------------------12------------------12---12b14----12b14r12p10-12-10------|
G |-9h11---------------11-9-11---9h11p9-------------------------------------------------------11-9-|
D |------------------------------------------------------------------------------------------------|
A |------------------------------------------------------------------------------------------------|
E |------------------------------------------------------------------------------------------------|

           ~~                 ~~                      ~~        ~~                    
e |----------------------------------9-9-12-9-12b14-12---9---------12-------------------|
B |-----------10----12-10---------12-----------------------12b14------12b14r12p10-12-10-|
G |----9-11------11-------11-9----------------------------------------------------------|
D |-11----------------------------------------------------------------------------------|
A |-------------------------------------------------------------------------------------|
E |-------------------------------------------------------------------------------------|

                         ~~     ~~                                      ~~         ~~                 ~~
e |-9-11-12b14-12-9---------------------------------------12-------------------------------------------|
B |-----------------12-10------------------10-12b14-12b14----12b14r12p10---12-10------10----12-10------|
G |-------------------------11-9------9-11---------------------------------------11------11-------11-9-|
D |--------------------------------11------------------------------------------------------------------|
A |----------------------------------------------------------------------------------------------------|
E |----------------------------------------------------------------------------------------------------|

              ~~                ~~      ~~             * here starts another guitar            ~
e |----------------------------------------------9-(9)-------9-(9)-------9-----------------9----|
B |--------------10----12-10-------12b14---12b14-------12b14-------12b14---12pb14r12-10-12---10-|
G |----9-11-11------11-------x-9----------------------------------------------------------------|
D |-11------------------------------------------------------------------------------------------|
A |---------------------------------------------------------------------------------------------|
E |---------------------------------------------------------------------------------------------|

                   ~~                                                   ~~         ~~    ~~   
e |-----------------------------------------12-------------------------------------------|
B |-------------------10----12-12b14-12pb14----12pb14r12-10-12-(10)--------10b-----------|
G |-11p9----9-11-11------11-----------------------------------------11-9-------11-9---11-|
D |------11------------------------------------------------------------------------------|
A |--------------------------------------------------------------------------------------|
E |--------------------------------------------------------------------------------------|

chords for the solo: F# E A F# E B F# E B F# E A F# E A F# E B F# E A F# E A F# E B F# E B F# E A 

second guitar:

                * play this three times then play the last three notes
e |------------------------|
B |------------------------|
G |---1-4----1h4-----4p1---|
D |-4------4-------------4-|
A |------------------------|
E |------------------------|


[4th verse]

F#     E                 A F#   E       B
Make me a road, a road for all to sea
F#      E                   B   F# E     B
Built of thoughts, to last me eternally
       B         D
Please make me a road
      A        B         B    E  C
Your sad road to the sea

[5th verse]

F#          E             A  F# E       B
Take off my load, my load is killing me
F#          E            A     F# E    B  
This load of thought is really agony
      B            D
I'll make my last stand
     A           B         B     C
With all that's left of me

[6th verse]

F#5
Sad road where are you taking me
F#5
Along the coast of eternity
F#5
I don't know what's become of me
F#5
My sad road to the sea
F#5     E5  F#5  
My sad road to the sea

[2nd solo]

~~               ~           ~             ~
e |----------12-12-------------------------------------------------------------------12----------------|
B |--12b15==-------12b14---10-12p10----10--------------------------------10-12-12b14----12b14r12-10-12-|
G |---------------------------------11-----11p9----9---11p9----9-11---11-------------------------------|
D |---------------------------------------------11----------11-----------------------------------------|
A |----------------------------------------------------------------------------------------------------|
E |----------------------------------------------------------------------------------------------------|

                   ~          ~              ~~   ~               ~          ~                   
e |----------------------------------------------------------------------------------------|
B |-10-12p10----10------------------------------10-----12p10----10----------------10-------|
G |----------11------11p9----9---11p9----9-11-------11-------11-----11p9----9--11----11-11-|
D |-----------------------11----------11---------------------------------11----------------|
A |----------------------------------------------------------------------------------------|
E |----------------------------------------------------------------------------------------|

                     ~        ~                  ~        ~                  ~        ~          
e |------------------------------------------------------------------------------------|
B |-10----12-10----10-----------10----12-10----10-----------10----12-10----10----------|
G |----11-------11-----11p9-11-----11-------11-----11p9-11-----11-------11-----11p9-11-|
D |------------------------------------------------------------------------------------|
A |------------------------------------------------------------------------------------|
E |------------------------------------------------------------------------------------|

                             ~      ~      ~      ~               ~         ~~              ~~            ~~
e |-------------------9-12b14--12b14--12b14--12b14--12p9----9-12-9--12----------12-(12)--------12-12-------|
B |-10----12-10----12------------------------------------12------------12b15-----------12b15---------12b15-|
G |----11-------11-----------------------------------------------------------------------------------------|
D |--------------------------------------------------------------------------------------------------------|
A |--------------------------------------------------------------------------------------------------------|
E |--------------------------------------------------------------------------------------------------------|

               ~~                                ~~                 ~
e |-12-12---------12----------------------9-12b14---12p9--------------12-12p9----9-12p(11)p9----9-12p(11)p9-|
B |-------12b15------12b14r12-10-12-10-12----------------12-10-12b15----------12-------------12-------------|
G |---------------------------------------------------------------------------------------------------------|
D |---------------------------------------------------------------------------------------------------------|
A |---------------------------------------------------------------------------------------------------------|
E |---------------------------------------------------------------------------------------------------------|

                         ~~               ~~         ~       ~      ~      ~      ~~         ~~         ~~  
e |----9-12p(11)p9----------12-12-12---------12--------(12)---(12)---(12)------------12---------12-------|
B |-12--------------12b14------------12b14------12b14---12b14--12b14--12b14--12b14------12b14------12b14-|
G |------------------------------------------------------------------------------------------------------|
D |------------------------------------------------------------------------------------------------------|
A |------------------------------------------------------------------------------------------------------|
E |------------------------------------------------------------------------------------------------------|

            ~~                            ~           ~      ~~          ~                    ~~
e |-12---------12------------------------------------------------------------------------------|
B |----12b14------12b14r12p10----10-12-10-------------------------------------10-12p10---------|
G |---------------------------11------------11p9----9---11-11---9----9-11--11----------11p9-11-|
D |----------------------------------------------11---------------11---------------------------|
A |--------------------------------------------------------------------------------------------|
E |--------------------------------------------------------------------------------------------|

                     ~        ~                  ~        ~                           ~         ~         ~  
e |-------------------------------------------------------------------------------------12--------12-------|
B |-10----12-10----10-----------10----12-10----10-----------10----12-10----10-12-12b14-----12b14-----12b14-|
G |----11-------11-----11p9-11-----11-------11-----11p9-11-----11-------11---------------------------------|
D |--------------------------------------------------------------------------------------------------------|
A |--------------------------------------------------------------------------------------------------------|
E |--------------------------------------------------------------------------------------------------------|

            ~         ~          ~                       ~                       ~
e |-12--------12--------9-9-12b14--12p9----9-12-9-9-12b14--12p9----9-12-9-9-12b14-|
B |----12b14-----12b14------------------12----------------------12----------------|
G |-------------------------------------------------------------------------------|
D |-------------------------------------------------------------------------------|
A |-------------------------------------------------------------------------------|
E |-------------------------------------------------------------------------------| 

chords for the solo: F# A F# D F# C D F# A F# C F# A F# C



************************************

Legend:

~ vibrato
() facoltative
h hammer on
p pull off
= hold note
b bending
pb prebending
r release 

************************************
Suggest correction
Give kudos to tab author, rate the tab!
1 2 3 4 5
comments
print report bad tab
guest
You may want to rate the tab now too:
select rating
Wanna post a correction for this tab? Suggest correction