Oops, an error
Loading. Please wait.

Stray Tab

861 views 1 this week
1 commentread comment
1 2 3 4 5
accurate
x 2
add to favorites
launch autoscroll
font size
0
reset
how to read this tab
guitar tuner
Tab Pro tools
  • play this tab
  • loop segment
  • change instrument
  • show fretboard
  • metronome
Autoscroll
slow
fast
+/-
esc
set tempo
stop
Contributor
Difficulty
novice
http://www.leafhound.net/ that's their homepage.

This is my first tab so don't tear me apart please.


This is a pretty easy, but really good song, i haven't figured out the solo or the 
breakdown part yet but it's in the key of A so shouldn't be too hard to figure it out.

intro/chorus

e-----------------------|
b-----------------------|
g--99999----77777-------|
d--99999----77777---7-5-|
a--77777----55555---7-5-|
e-------------------5-3-|


Verse

e----------------|
b----------------|
g----------------|
d-----5----------|
a--777-5-5-----5-|
e---------5-5-8--|
comments
We did not receive enough feedback on this tab! Please rate:
print report bad tab
1 2 3 4 5
1 comment total.
0 reply
Ridder Lugtepik wrote on October 3 2009, 08:51 am

e---------------------|
b---------------------|
g---------------------|
d-------5-------------| that's more like it
a--7-77---5-5-------5-| anyway fine first tab.
e-------------5-5-7---|

I want to post or [tab]
guest
You may want to rate the tab now too:
select rating
Please do not post tabs as comments. Select "correction" instead!