Oops, an error
Loading. Please wait.

Stray Tab

916 views 3 this week
2 commentsread comments
1 2 3 4 5
please rate
add to favorites
launch autoscroll
font size
0
reset
how to read this tab
guitar tuner
Autoscroll
slow
fast
+/-
esc
set tempo
stop
Help us to improve Ultimate-Guitar.com Take our survey!
×
Author
Difficulty
novice
http://www.leafhound.net/ that's their homepage.

This is my first tab so don't tear me apart please.


This is a pretty easy, but really good song, i haven't figured out the solo or the 
breakdown part yet but it's in the key of A so shouldn't be too hard to figure it out.

intro/chorus

e-----------------------|
b-----------------------|
g--99999----77777-------|
d--99999----77777---7-5-|
a--77777----55555---7-5-|
e-------------------5-3-|


Verse

e----------------|
b----------------|
g----------------|
d-----5----------|
a--777-5-5-----5-|
e---------5-5-8--|
Suggest correction
Give kudos to tab author, rate the tab!
1 2 3 4 5
comments
print report bad tab
2 comments total.
+1 reply
Ridder Lugtepik 462 wrote on October 3 2009, 08:51 am

e---------------------|
b---------------------|
g---------------------|
d-------5-------------| that's more like it
a--7-77---5-5-------5-| anyway fine first tab.
e-------------5-5-7---|

0 reply
thomasvhout92 10 wrote on September 22 2016, 03:58 pm

e---------------------|
b---------------------|
g---------------------|
d-------5-------------| well he actually plays it like this,
a--7-77---5-5-------5-| if you listen closely
e-------------5-6-7---|

guest
You may want to rate the tab now too:
select rating
Please do not post tabs as comments. Select "correction" instead!