Oops, an error
Loading. Please wait.

Amazing Grace Tab

5,785 views 6 this week
no commentswrite comment
1 2 3 4 5
3 more votes to show rating
add to favorites
launch autoscroll
font size
0
reset
how to read this tab
guitar tuner
Autoscroll
slow
fast
+/-
esc
set tempo
stop
Help us to improve Ultimate-Guitar.com Take our survey!
×
Author
Difficulty
novice
h=hit
s=slide
|---------3--7-3-7-5-3-0------3--7-3-7-5s10-10-7-10-7s3-3-0------|
|------3h4---------------3-3h4------------------------------3----|
|----------------------------------------------------------------|
|----------------------------------------------------------------|
|----------------------------------------------------------------|
|----------------------------------------------------------------|

or

|-------------------------------------------------------|
|-------------------------------------------------------|
|-------------------------------------------------------|
|--------0-4-0-4-2-0------0-4-2-4-2-0-------------------|
|-------0------------2-0-0------------------------------|
|-------------------------------------------------------|


 I like the bottom one best because I can hold the chords (D, G, A) in that order. but I 
like the top
Suggest correction
Give kudos to tab author, rate the tab!
1 2 3 4 5
comments
print report bad tab
guest
You may want to rate the tab now too:
select rating
Wanna post a correction for this tab? Suggest correction