Oops, an error
Loading. Please wait.

Raspukala Sar Planina tab

4,115 views 6 this week
6 commentsread comments
1 2 3 4 5
2 more votes to show rating
add to favorites
×
Save as Personal and add changes to this tab that will be seen only by you. Learn more ›
×
You can save this tab as Personal to edit and correct it or add notes. All changes will be seen only by you. Learn more »
launch autoscroll
font size
0
reset
how to read this tab
guitar tuner
edit
Autoscroll
slow
fast
+/-
esc
set tempo
stop
Author
Difficulty
Raspukala Sar Planina
Leb i Sol - Live in Macedonia

Main Riff:
e|-------------------------------------|
B|o-----------------------------------o|
G|-------------------------------------|
D|----------9--6-----------------------|
A|o--------------5---4--2--4--2-------o|
E|--4--4\------------------------4--2--|

Chorus: (is actually sung in the Serbian folk song)
e|---------------------------------------------------------------|
B|---------------------------------------------------------------|
G|---------------------------------------------------------------|
D|--------------------------------/11---11-11-11--13p11----------|
A|--/14--14-14-14---16p14--13~~-------------------------14---13--|
E|---------------------------------------------------------------|

e|---------------------------------------------------------------|
B|---------------------------------------------------------------|
G|---------------------------------------------------------------|
D|-------------------/11--11--13p11--------------11--------------|
A|--11------11--13\------------------14---13h14-----13--11-11~~--|
E|------14-------------------------------------------------------|

e|---------------------------------------------------------------|
B|---------------------------------------------------------------|
G|---------------------------------------------------------------|
D|-----------11--11---13p11-------------11-----------------------|
A|--/13--13-----------------14---13h14------13---11---11~~~~~\\--|
E|---------------------------------------------------------------|

   That's it. It's pretty much just a pentatonic blues scale in the key of G#. To listen 
the music, go to YouTube and watch the video. And yes, I spelled the song title right. 
there's a solo but Vlatko Stefanovski plays way too fast for me to tab it all out.

www.lebisol.com.mk/

            
            
Suggest correction
Creating personal tab
Creating personal tab
You can edit any tab online and save it as your Personal.

You can edit, replace or remove any tab part or add personal notes – all changes will be seen only by you.

Personal tabs can be accessed anytime from any device, even offline.
Learn more »
Give kudos to tab author, rate the tab!
1 2 3 4 5
comments
print report bad tab
6 comments total. Showing first comments.
0 reply
prcak 31 Apr 19, 2007 10:17 AM

you suck man! vrska nemas
------------------------------------------------------------------------------
------------------------------------------------------------------------------
-4--3-4-6-3---------3/6-6-6-6--4-3-------3-4--3/6-3/6-4-3-4-6-3---------------
-------------6-6v------------------6-4-6-------------------------6-6v---------
------------------------------------------------------------------------------
------------------------------------------------------------------------------


------------------------------------------------------------------------------
------------------------------------------------------------------------------
-3-3--6-6--4--3-4-6-3---------------------------------------------------------
-----------------------6-6vvv-------------------------------------------------
------------------------------------------------------------------------------
------------------------------------------------------------------------------


------------------------------------------------------------------------------
-12--11-12-14-11-9-9v-11/14-14-14-14-12-11-9----9-11-12--14b-14b--12-11-12----
--x------------------------------------------11-------------------------------
--x---------------------------------------------------------------------------
--x---------------------------------------------------------------------------
------------------------------------------------------------------------------


------------------------------------------------------------------------------
-14-11-9-9vv----11-11--14-14--12-11-14-12-11--9-9vvvvv------------------------
------------------------------------------------------------------------------
------------------------------------------------------------------------------
------------------------------------------------------------------------------
------------------------------------------------------------------------------


vaka treba da bide. this is how it is.

0 reply
foojitsu529 89 Apr 22, 2007 05:57 PM

Dude, that's the same thing. It's just easier for me to play using the 12+ frets. Play it. SAME NOTES. I DO move it up an octive and play it the second time too. I just didn't put it down in the tab.

0 reply
Galjo 125 Jun 19, 2007 02:25 PM

Taka e prcak vo pravo si tuka.Ej ojte na www.dmoll.tk i pobarajte od galjo kalajdzisko oro.od mene e napraeno ke ja klam i tuka.ja ima i busava azbuka vo tablatura od mene ama e vo D napraena a se sviri vo F#.pozdrav

guest
You may want to rate the tab now too:
select rating
Wanna post a correction for this tab? Suggest correction