Oops, an error
Loading. Please wait.

Gallowdance tab

301 views 48 this week
no commentswrite comment
1 2 3 4 5
3 more votes to show rating
add to favorites
×
Save as Personal and add changes to this tab that will be seen only by you. Learn more ›
×
You can save this tab as Personal to edit and correct it or add notes. All changes will be seen only by you. Learn more »
launch autoscroll
font size
0
reset
how to read this tab
guitar tuner
edit
Autoscroll
slow
fast
+/-
esc
set tempo
stop
[Intro]

D|-------------------------------------------------------------------------------------------------------|
A|-------------------------------------------------------------------------------------------------------|
F|-------------------------------------------------------------------------------------------------------|
C|-------------------------------------------------------------------------------------------------------|
G|-0-0-0-0-0-0-0-0-------------------------------------------------------0-0-0-0-0-0-0-0-----------------|
C|-----------------2-3-3-3-3-3-3-3-3-3-3-3-3-3-3-3-3-2-2-0-0-0-0-0-0-0-0-----------------2-3-3-3-3-3-3-3-|

D|-----------------------------------------------------------------------|
A|-----------------------------------------------------------------------|
F|-----------------------------------------------------------------------|
C|-----------------------------------------------------------------------|
G|-------------------------------------0-0-0-0-0-0-0-0-------------------|
C|-3-3-3-3-3-3-3-3-2-2-0-0-0-0-0-0-0-0-----------------2-3-3-3-3-3-3-3-3-|

D|-----------------------------------------------------------------------|
A|-----------------------------------------------------------------------|
F|-----------------------------------------------------------------------|
C|-----------------------------------------------------------------------|
G|-------------------------------------0-0-0-0-0-0-0-0-------------------|
C|-3-3-3-3-3-3-3-3-2-2-0-0-0-0-0-0-0-0-----------------2-3-3-3-3-3-3-3-3-|


D|----------------------------|----------------------------|
A|---11------10-----11-----10-|---11------10-----11-----10-|
F|-9-------9------9------9----|-9-------9------9------9----|
C|----------------------------|----------------------------|
G|----------------------------|----------------------------|
C|----------------------------|----------------------------|

D|----------------------------|----------------------------|
A|---11------10-----11-----10-|---11------10-----11-----10-|
F|-9-------9------9------9----|-9-------9------9------9----|
C|----------------------------|----------------------------|
G|----------------------------|----------------------------|
C|----------------------------|----------------------------|

[Verse]

D|-----------------------------------------------------------------------|
A|-----------------------------------------------------------------------|
F|-----------------------------------------------------------------------|
C|-----------------------------------------------------------------------|
G|-------------------------------------0-0-0-0-0-0-0-0-------------------|
C|-3-3-3-3-3-3-3-3-2-2-0-0-0-0-0-0-0-0-----------------2-3-3-3-3-3-3-3-3-|

D|-----------------------------------------------------------------------|
A|-----------------------------------------------------------------------|
F|-----------------------------------------------------------------------|
C|-----------------------------------------------------------------------|
G|-------------------------------------0-0-0-0-0-0-0-0-------------------|
C|-3-3-3-3-3-3-3-3-2-2-0-0-0-0-0-0-0-0-----------------2-3-3-3-3-3-3-3-3-|

D|-----------------------------------------------------------------------|
A|-----------------------------------------------------------------------|
F|-----------------------------------------------------------------------|
C|-----------------------------------------------------------------------|
G|-------------------------------------0-0-0-0-0-0-0-0-------------------|
C|-3-3-3-3-3-3-3-3-2-2-0-0-0-0-0-0-0-0-----------------2-3-3-3-3-3-3-3-3-|

[Instrumental]

D|----------------------------|----------------------------|
A|---11------10-----11-----10-|---11------10-----11-----10-|
F|-9-------9------9------9----|-9-------9------9------9----|
C|----------------------------|----------------------------|
G|----------------------------|----------------------------|
C|----------------------------|----------------------------|

[Verse]

D|-----------------------------------------------------------------------|
A|-----------------------------------------------------------------------|
F|-----------------------------------------------------------------------|
C|-----------------------------------------------------------------------|
G|-------------------------------------0-0-0-0-0-0-0-0-------------------|
C|-3-3-3-3-3-3-3-3-2-2-0-0-0-0-0-0-0-0-----------------2-3-3-3-3-3-3-3-3-|

D|-----------------------------------------------------------------------|
A|-----------------------------------------------------------------------|
F|-----------------------------------------------------------------------|
C|-----------------------------------------------------------------------|
G|-------------------------------------0-0-0-0-0-0-0-0-------------------|
C|-3-3-3-3-3-3-3-3-2-2-0-0-0-0-0-0-0-0-----------------2-3-3-3-3-3-3-3-3-|

D|-----------------------------------------------------------------------|
A|-----------------------------------------------------------------------|
F|-----------------------------------------------------------------------|
C|-----------------------------------------------------------------------|
G|-------------------------------------0-0-0-0-0-0-0-0-------------------|
C|-3-3-3-3-3-3-3-3-2-2-0-0-0-0-0-0-0-0-----------------2-3-3-3-3-3-3-3-3-|

[Bridge]

D|-----------------------------------------------------------------------|
A|-----------------------------------------------------------------------|
F|-----------------------------------------------------------------------|
C|-----------------------------------------------------------------------|
G|-------------------------------------0-0-0-0-0-0-0-0-------------------|
C|-3-3-3-3-3-3-3-3-2-2-0-0-0-0-0-0-0-0-----------------2-3-3-3-3-3-3-3-3-|

D|-----------------------------------------------------------------------|
A|-----------------------------------------------------------------------|
F|-----------------------------------------------------------------------|
C|-----------------------------------------------------------------------|
G|-------------------------------------0-0-0-0-0-0-0-0-------------------|
C|-3-3-3-3-3-3-3-3-2-2-0-0-0-0-0-0-0-0-----------------2-3-3-3-3-3-3-3-3-|

D|-----------------------------------------------------------------------|
A|-----------------------------------------------------------------------|
F|-----------------------------------------------------------------------|
C|-----------------------------------------------------------------------|
G|-------------------------------------0-0-0-0-0-0-0-0-------------------|
C|-3-3-3-3-3-3-3-3-2-2-0-0-0-0-0-0-0-0-----------------2-3-3-3-3-3-3-3-3-|

D|-----------------------------------------------------------------------|
A|-----------------------------------------------------------------------|
F|-----------------------------------------------------------------------|
C|-----------------------------------------------------------------------|
G|-------------------------------------0-0-0-0-0-0-0-0-------------------|
C|-3-3-3-3-3-3-3-3-2-2-0-0-0-0-0-0-0-0-----------------2-3-3-3-3-3-3-3-3-|

[Verse]

D|-----------------------------------------------------------------------|
A|-----------------------------------------------------------------------|
F|-----------------------------------------------------------------------|
C|-----------------------------------------------------------------------|
G|-------------------------------------0-0-0-0-0-0-0-0-------------------|
C|-3-3-3-3-3-3-3-3-2-2-0-0-0-0-0-0-0-0-----------------2-3-3-3-3-3-3-3-3-|

D|-----------------------------------------------------------------------|
A|-----------------------------------------------------------------------|
F|-----------------------------------------------------------------------|
C|-----------------------------------------------------------------------|
G|-------------------------------------0-0-0-0-0-0-0-0-------------------|
C|-3-3-3-3-3-3-3-3-2-2-0-0-0-0-0-0-0-0-----------------2-3-3-3-3-3-3-3-3-|

D|-----------------------------------------------------------------------|
A|-----------------------------------------------------------------------|
F|-----------------------------------------------------------------------|
C|-----------------------------------------------------------------------|
G|-------------------------------------0-0-0-0-0-0-0-0-------------------|
C|-3-3-3-3-3-3-3-3-2-2-0-0-0-0-0-0-0-0-----------------2-3-3-3-3-3-3-3-3-|

[Instrumental]

D|-----------------------------------------------------------------------|
A|-----------------------------------------------------------------------|
F|-----------------------------------------------------------------------|
C|-----------------------------------------------------------------------|
G|-------------------------------------0-0-0-0-0-0-0-0-------------------|
C|-3-3-3-3-3-3-3-3-2-2-0-0-0-0-0-0-0-0-----------------2-3-3-3-3-3-3-3-3-|

D|-----------------------------------------------------------------------|
A|-----------------------------------------------------------------------|
F|-----------------------------------------------------------------------|
C|-----------------------------------------------------------------------|
G|-------------------------------------0-0-0-0-0-0-0-0-------------------|
C|-3-3-3-3-3-3-3-3-2-2-0-0-0-0-0-0-0-0-----------------2-3-3-3-3-3-3-3-3-|

[Verse]

D|-----------------------------------------------------------------------|
A|-----------------------------------------------------------------------|
F|-----------------------------------------------------------------------|
C|-----------------------------------------------------------------------|
G|-------------------------------------0-0-0-0-0-0-0-0-------------------|
C|-3-3-3-3-3-3-3-3-2-2-0-0-0-0-0-0-0-0-----------------2-3-3-3-3-3-3-3-3-|

D|-----------------------------------------------------------------------|
A|-----------------------------------------------------------------------|
F|-----------------------------------------------------------------------|
C|-----------------------------------------------------------------------|
G|-------------------------------------0-0-0-0-0-0-0-0-------------------|
C|-3-3-3-3-3-3-3-3-2-2-0-0-0-0-0-0-0-0-----------------2-3-3-3-3-3-3-3-3-|

D|-----------------------------------------------------------------------|
A|-----------------------------------------------------------------------|
F|-----------------------------------------------------------------------|
C|-----------------------------------------------------------------------|
G|-------------------------------------0-0-0-0-0-0-0-0-------------------|
C|-3-3-3-3-3-3-3-3-2-2-0-0-0-0-0-0-0-0-----------------2-3-3-3-3-3-3-3-3-|

[Outro]

D|-----------------------------------------------------------------------|
A|-----------------------------------------------------------------------|
F|-----------------------------------------------------------------------|
C|-----------------------------------------------------------------------|
G|-------------------------------------0-0-0-0-0-0-0-0-------------------|
C|-3-3-3-3-3-3-3-3-2-2-0-0-0-0-0-0-0-0-----------------2-3-3-3-3-3-3-3-3-|

D|-----------------------------------------------------------------------|
A|-----------------------------------------------------------------------|
F|-----------------------------------------------------------------------|
C|-----------------------------------------------------------------------|
G|-------------------------------------0-0-0-0-0-0-0-0-------------------|
C|-3-3-3-3-3-3-3-3-2-2-0-0-0-0-0-0-0-0-----------------2-3-3-3-3-3-3-3-3-|

            
            
Suggest correction
Creating personal tab
Creating personal tab
You can edit any tab online and save it as your Personal.

You can edit, replace or remove any tab part or add personal notes – all changes will be seen only by you.

Personal tabs can be accessed anytime from any device, even offline.
Learn more »
Give kudos to tab author, rate the tab!
1 2 3 4 5
comments
print report bad tab
guest
You may want to rate the tab now too:
select rating
Wanna post a correction for this tab? Suggest correction