Oops, an error
Loading. Please wait.

Babe Im Gonna Leave You Tab

version 1
version 1
1,612,245 views 3,033 this week
176 commentsread comments
1 2 3 4 5
excellent!
x 720
add to favorites
launch autoscroll
font size
0
reset
how to read this tab
guitar tuner
Autoscroll
slow
fast
+/-
esc
set tempo
stop
Help us to improve Ultimate-Guitar.com Take our survey!
×
[Verse 1]

E|-----0----------------------------------------------------------------|
B|----1---------1---------3---------1--------3-------1--------1-------0-|
G|---2--------2--------0---------0--------2-------2---------2-------1---|
D|--2-------2-------2---------2--------0--------0--------3--------2-----|
A|-0------0-------------------------------------------------------------|
E|----------------3---------3--------2--------2--------1--------0-------|


E|-------3--------0--------3--------0---------------------------------|
B|------------------------------------------3-------1-------1-------0-|
G|-----2-------2--------0--------0--------2-------2-------2-------1---|
D|---2-------2--------2--------2--------0-------0-------3-------2-----|
A|-0-------0----------------------------------------------------------|
E|------------------3--------3--------2-------2-------1-------0-------|


E|-------3--------0---------------------------------------------------|
B|-------------------------3-------1--------3-------1-------1-------0-|
G|-----2-------2--------0--------0--------2-------2-------2-------1---|
D|---2-------2--------2--------2--------0-------0-------3-------2-----|
A|-0-------0----------------------------------------------------------|
E|------------------3--------3--------2-------2-------1-------0-------|
  Babe...                                    Baby, Baby...

E|-------3--------0---------------------------------------------------|
B|-------------------------3-------1--------3-------1-------1-------0-|
G|-----2-------2--------0--------0--------2-------2-------2-------1---|
D|---2-------2--------2--------2--------0-------0-------3-------2-----|
A|-0-------0----------------------------------------------------------|
E|------------------3--------3--------2-------2-------1-------0-------|
  I'm gonna leave you...                                     I said

E|-------3--------0---------------------------------------------------|
B|-------------------------3-------1--------3-------1-------1-------0-|
G|-----2-------2--------0--------0--------2-------2-------2-------1---|
D|---2-------2--------2--------2--------0-------0-------3-------2-----|
A|-0-------0----------------------------------------------------------|
E|------------------3--------3--------2-------2-------1-------0-------|
  Baby...                                            You know... I'm 

E|-------3--------0--------3--------0---------------------------------|
B|------------------------------------------3-------1-------1-------0-|
G|-----2-------2--------0--------0--------2-------2-------2-------1---|
D|---2-------2--------2--------2--------0-------0-------3-------2-----|
A|-0-------0----------------------------------------------------------|
E|------------------3--------3--------2-------2-------1-------0-------|
 gonna leave you...                                          I...

E|----------------------------------------------------------------|
B|-------3-------1-------3-------0-------3-------1-------3------0-|
G|-----2-------2-------1-------1-------2-------2-------1-------1--|
D|---3-------3-------2-------2-------3-------3-------2-------2----|
A|----------------------------------------------------------------|
E|-1-------1-------0-------0-------1-------1-------0-------0------|
  leave you in the summertime... leave you when the summer comes a

E|-------0--------0--------3--------0---------------------------------|
B|------------------------------------------3-------1-------1-------0-|
G|-----2-------2--------0--------0--------2-------2-------2-------1---|
D|---2-------2--------2--------2--------0-------0-------3-------2-----|
A|-0-------0----------------------------------------------------------|
E|------------------3--------3--------2-------2-------1-------0-------|
  rollin'...                         Leave you when the summer comes a-

E|0-0-0-0--3--0---1-1-1-1-1-1-1-|
B|1-1-1-1 -1--1---3-3-3-3-3-3-3-|
G|2-2-2-2--2--2---0-0-0-0-0-0-0-| x4
D|2-2-2-2--2--2-----------------|
A|0-0-0-0--0--0-----------------|
E|0-0-0-0--0--0-----------------|
   long.


[Chorus]

E|------0----------------------------------------------------------------|
B|---------------1---------3---------1--------3-------1--------1-------0-|
G|----2--------2--------0---------0--------2-------2---------2-------1---|
D|---2-------2-------2---------2--------0--------0--------3--------2-----|
A|-0------0--------------------------------------------------------------|
E|----------------3---------3--------2--------2--------1--------0--------|
   Bay  -  bay  -  bay  -  bay  -  bay  -  bay  -  baby,        I

E|-------3--------0---------------------------------------------------|
B|-------------------------3-------1--------3-------1-------1-------0-|
G|-----2-------2--------0--------0--------2-------2-------2-------1---|
D|---2-------2--------2--------2--------0-------0-------3-------2-----|
A|-0-------0----------------------------------------------------------|
E|------------------3--------3--------2-------2-------1-------0-------|
  wanna leave you...                 I ain't jokin’ woman, I got to 

E|-------3--------0---------------------------------------------------|
B|-------------------------3-------1--------3-------1-------1-------0-|
G|-----2-------2--------0--------0--------2-------2-------2-------1---|
D|---2-------2--------2--------2--------0-------0-------3-------2-----|
A|-0-------0----------------------------------------------------------|
E|------------------3--------3--------2-------2-------1-------0-------|
  ramble...                          Oh,   yeah...

E|-------3--------0---------------------------------------------------|
B|-------------------------3-------1--------3-------1-------1-------0-|
G|-----2-------2--------0--------0--------2-------2-------2-------1---|
D|---2-------2--------2--------2--------0-------0-------3-------2-----|
A|-0-------0----------------------------------------------------------|
E|------------------3--------3--------2-------2-------1-------0-------|
          Baby, baby        I beleivin'...         We really got to 

E|----------------------------------------------------------------|
B|-------3-------1-------3-------0-------3-------1-------3------0-|
G|-----2-------2-------1-------1-------2-------2-------1-------1--|
D|---3-------3-------2-------2-------3-------3-------2-------2----|
A|----------------------------------------------------------------|
E|-1-------1-------0-------0-------1-------1-------0-------0------|
  ramble...                          I can hear it callin' me the way it 

E|------0----------------------------------------------------------------|
B|---------------1---------3---------1--------3-------1--------1-------0-|
G|----2--------2--------0---------0--------2-------2---------2-------1---|
D|---2-------2-------2---------2--------0--------0--------3--------2-----|
A|-0------0--------------------------------------------------------------|
E|----------------3---------3--------2--------2--------1--------0--------|
  used to do...                     I can hear it callin' me back hoooo-

E|0-0-0-0--3--0---1-1-1-1-1-1-1-|
B|1-1-1-1 -1--1---3-3-3-3-3-3-3-|
G|2-2-2-2--2--2---0-0-0-0-0-0-0-| x4
D|2-2-2-2--2--2-----------------|
A|0-0-0-0--0--0-----------------|
E|0-0-0-0--0--0-----------------|
  ooooowwwuooome!

E|---------------------------------|
B|-------5-------8-------8-------6-|
G|-----4-------9-------7-------7---| x4
D|---2-------7-------7-------7-----|
A|-0-------0-------0-------0-------|
E|---------------------------------|


[Bridge]

E|0-0-0--0--0-0----3-3-3--3--3-3----2-2-2--0--2-2----1-1-1-1--0-0-|
B|1-1-1--0--1-1----1-1-1--1--1-1----3-3-3--0--3-3----1-1-1-1--0-0-|
G|2-2-2--2--2-2----0-0-0--0--0-0----2-2-2--0--2-2----2-2-2-2--1-1-|
D|2-2-2--2--2-2----2-2-2--0--2-2----0-0-0--0--0-0----3-3-3-3--2-2-|
A|0-0-0--0--0-0--------------------------------------3-3-3-3--2-2-|
E|0-0-0--0--0-0--------------------------------------1-1-1-1--0-0-|
  Baaaby...         oh...          babe

E|0-0-0--0--0-0----3-3-3--3--3-3----2-2-2--0--2-2----1-1-1-1--0-0-|
B|1-1-1--0--1-1----1-1-1--1--1-1----3-3-3--0--3-3----1-1-1-1--0-0-|
G|2-2-2--2--2-2----0-0-0--0--0-0----2-2-2--0--2-2----2-2-2-2--1-1-|
D|2-2-2--2--2-2----2-2-2--0--2-2----0-0-0--0--0-0----3-3-3-3--2-2-|
A|0-0-0--0--0-0--------------------------------------3-3-3-3--2-2-|
E|0-0-0--0--0-0--------------------------------------1-1-1-1--0-0-|
  I've gotta leave you...                                Oh...

E|0-0-0--0--0-0----3-3-3--3--3-3----2-2-2--0--2-2----1-1-1-1--0-0-|
B|1-1-1--0--1-1----1-1-1--1--1-1----3-3-3--0--3-3----1-1-1-1--0-0-|
G|2-2-2--2--2-2----0-0-0--0--0-0----2-2-2--0--2-2----2-2-2-2--1-1-|
D|2-2-2--2--2-2----2-2-2--0--2-2----0-0-0--0--0-0----3-3-3-3--2-2-|
A|0-0-0--0--0-0--------------------------------------3-3-3-3--2-2-|
E|0-0-0--0--0-0--------------------------------------1-1-1-1--0-0-|
  Baaabay...                                         you know, I've

E|0-0-0--0--0-0----3-3-3--3--3-3----2-2-2--0--2-2----1-1-1-1--0-0-|
B|1-1-1--0--1-1----1-1-1--1--1-1----3-3-3--0--3-3----1-1-1-1--0-0-|
G|2-2-2--2--2-2----0-0-0--0--0-0----2-2-2--0--2-2----2-2-2-2--1-1-|
D|2-2-2--2--2-2----2-2-2--0--2-2----0-0-0--0--0-0----3-3-3-3--2-2-|
A|0-0-0--0--0-0--------------------------------------3-3-3-3--2-2-|
E|0-0-0--0--0-0--------------------------------------1-1-1-1--0-0-|
  really got to leave you...                           Oh...


E|1-1-1-1-1-1----0-0-0-0-0-0-| 
B|1-1-1-1-1-1----0-0-0-0-0-0-|
G|2-2-2-2-2-2----1-1-1-1-1-1-|
D|3-3-3-3-3-3----2-2-2-2-2-2-|
A|3-3-3-3-3-3----2-2-2-2-2-2-|
E|1-1-1-1-1-1----0-0-0-0-0-0-|
  I can hear it callin me...

E|1-1-1-1-1-1----0-0-0-0-0-0-|
B|1-1-1-1-1-1----0-0-0-0-0-0-|
G|2-2-2-2-2-2----1-1-1-1-1-1-|
D|3-3-3-3-3-3----2-2-2-2-2-2-|
A|3-3-3-3-3-3----2-2-2-2-2-2-|
E|1-1-1-1-1-1----0-0-0-0-0-0-|
  I said don't you hear it callin' me the way it 

E|0-0-0-0--3--0---1-1-1-1-1-1-1-|
B|1-1-1-1 -1--1---3-3-3-3-3-3-3-|
G|2-2-2-2--2--2---0-0-0-0-0-0-0-|
D|2-2-2-2--2--2-----------------|
A|0-0-0-0--0--0-----------------|
E|0-0-0-0--0--0-----------------|
  used to do...          oohhh

E|0-0-0-0--3--0---1-1-1-1-1-1-1-|
B|1-1-1-1 -1--1---3-3-3-3-3-3-3-|
G|2-2-2-2--2--2---0-0-0-0-0-0-0-|
D|2-2-2-2--2--2-----------------|
A|0-0-0-0--0--0-----------------|
E|0-0-0-0--0--0-----------------|
  hhhhhhhhhhhhhhhhhhhhhhhhhh...

E|0-0-0-0--3--0---1-1-1-1-1-1-1-|
B|1-1-1-1 -1--1---3-3-3-3-3-3-3-|
G|2-2-2-2--2--2---0-0-0-0-0-0-0-| x2
D|2-2-2-2--2--2-----------------|
A|0-0-0-0--0--0-----------------|
E|0-0-0-0--0--0-----------------|


[Verse]

E|-----0----------------------------------------------------------------|
B|--------------1---------3---------1--------3-------1--------1-------0-|
G|---2--------2--------0---------0--------2-------2---------2-------1---|
D|--2-------2-------2---------2--------0--------0--------3--------2-----|
A|-0------0-------------------------------------------------------------|
E|---------------3---------3--------2--------2--------1--------0--------|


E|------3--------1-----------------------------------------------------|
B|------------------------3-------1--------3-------1-------1-------0---|
G|----2-------2--------0--------0--------2-------2-------2-------1-----|
D|--2-------2--------2--------2--------0-------0-------3-------2-------|
A|-0-------0-----------------------------------------------------------|
E|-----------------3--------3--------2-------2-------1-------0---------|


E|-------3--------1--------1--------0--------0---------------0-------0-|
B|---------------------------------------------------3-----------------|
G|-----2-------2--------0--------0---------2-------2-------2-------1---|
D|---2-------2--------2--------2---------0-------0-------3-------2-----|
A|-0-------0-----------------------------------------------------------|
E|------------------3--------3---------2-------2-------1-------0-------|
  I know...        I know...         I know I never never never never never gonna 

E|---------------------------------------------------------------------|
B|-------1-------1---------1-------1--------1-------1-------1-------0--|
G|-----2-------2--------0--------0--------2-------2-------2-------1----|
D|---2-------2--------2--------2--------0-------0-------3-------2------|
A|-0-------0-----------------------------------------------------------|
E|------------------3--------3--------2-------2-------1-------0--------|
  Leave you babe...                  But I gotta go away from this place...


E|-------3--------1--------1--------2--------1---------0----1-------1--|
B|---------------------------------------------------3-----------------|
G|-----2-------2--------0--------0---------2-------2-------2-------1---|
D|---2-------2--------2--------2---------0-------0-------3-------2-----|
A|-0-------0-----------------------------------------------------------|
E|------------------3--------3---------2-------2-------1-------0-------|
                   I’ve gotta quit you, yeah...       Whoaaaaaaaaa

E|---------------------------------------------------------------------|
B|-------1-------1---------1-------1--------1-------1-------1-------0--|
G|-----2-------2--------0--------0--------2-------2-------2-------1----|
D|---2-------2--------2--------2--------0-------0-------3-------2------|
A|-0-------0-----------------------------------------------------------|
E|------------------3--------3--------2-------2-------1-------0--------|
  Baby!            Baby!             Baby!           Baby!        

E|0-0-0--0--0-0----3-3-3--3--3-3----2-2-2--0--2-2----1-1-1-1--0-0------|
B|1-1-1--0--1-1----1-1-1--1--1-1----3-3-3--0--3-3----1-1-1-1--0-0------|
G|2-2-2--2--2-2----0-0-0--0--0-0----2-2-2--0--2-2----2-2-2-2--1-1------|
D|2-2-2--2--2-2----2-2-2--0--2-2----0-0-0--0--0-0----3-3-3-3--2-2------|
A|0-0-0--0--0-0--------------------------------------3-3-3-3--2-2------|
E|0-0-0--0--0-0--------------------------------------1-1-1-1--0-0------|
  Baby!            Baby!            Baby!            Ohhh..........

E|0-0-0--0--0-0----3-3-3--3--3-3----2-2-2--0--2-2----1-1-1-1--0-0------|
B|1-1-1--0--1-1----1-1-1--1--1-1----3-3-3--0--3-3----1-1-1-1--0-0------|
G|2-2-2--2--2-2----0-0-0--0--0-0----2-2-2--0--2-2----2-2-2-2--1-1------|
D|2-2-2--2--2-2----2-2-2--0--2-2----0-0-0--0--0-0----3-3-3-3--2-2------|
A|0-0-0--0--0-0--------------------------------------3-3-3-3--2-2------|
E|0-0-0--0--0-0--------------------------------------1-1-1-1--0-0------|
                                              Don’t you hear it callin’ me...

E|-------0-------------------------------------------------------------|
B|---------------1--------3--------1---------1-------1-------1-------0-|
G|-----2-------2--------0--------0---------2-------2-------2-------1---|
D|---2-------2--------2--------2---------0-------0-------3-------2-----|
A|-0-------0-----------------------------------------------------------|
E|------------------3--------3---------2-------2-------1-------0-------|
                          Oh...              Woman...

E|-------3--------1-------1--------0---------1-------0-------0-------0-|
B|---------------------------------------------------------------------|
G|-----2-------2--------0--------0---------2-------2-------2-------1---|
D|---2-------2--------2--------2---------0-------0-------3-------2-----|
A|-0-------0-----------------------------------------------------------|
E|------------------3--------3---------2-------2-------1-------0-------|
  Woman...                I know...          I know...        Feels 

E|-------3--------1-------1--------0---------0-------1-------0-------0-|
B|---------------------------------------------------------------------|
G|-----2-------2--------0--------0---------2-------2-------2-------1---|
D|---2-------2--------2--------2---------0-------0-------3-------2-----|
A|-0-------0-----------------------------------------------------------|
E|------------------3--------3---------2-------2-------1-------0-------|
  good to have you back again and I know that one day baby, it’s gonna 

E|-------3--------1-------1--------0---------0-------1-------0-------0-|
B|---------------------------------------------------------------------|
G|-----2-------2--------0--------0---------2-------2-------2-------1---|
D|---2-------2--------2--------2---------0-------0-------3-------2-----|
A|-0-------0-----------------------------------------------------------|
E|------------------3--------3---------2-------2-------1-------0-------|
  Grow, yes it is..           We gonna go... walking through the park every day!

E|0-0-0--0--0-0----3-3-3--3--3-3----2-2-2--0--2-2----1-1-1-1--0-0------|
B|1-1-1--0--1-1----1-1-1--1--1-1----3-3-3--0--3-3----1-1-1-1--0-0------|
G|2-2-2--2--2-2----0-0-0--0--0-0----2-2-2--0--2-2----2-2-2-2--1-1------|
D|2-2-2--2--2-2----2-2-2--0--2-2----0-0-0--0--0-0----3-3-3-3--2-2------|
A|0-0-0--0--0-0--------------------------------------3-3-3-3--2-2------|
E|0-0-0--0--0-0--------------------------------------1-1-1-1--0-0------|
                   That’s what I said... Every day...  Oh...        

E|0-0-0--0--0-0----3-3-3--3--3-3----2-2-2--0--2-2----1-1-1-1--0-0------|
B|1-1-1--0--1-1----1-1-1--1--1-1----3-3-3--0--3-3----1-1-1-1--0-0------|
G|2-2-2--2--2-2----0-0-0--0--0-0----2-2-2--0--2-2----2-2-2-2--1-1------|
D|2-2-2--2--2-2----2-2-2--0--2-2----0-0-0--0--0-0----3-3-3-3--2-2------|
A|0-0-0--0--0-0--------------------------------------3-3-3-3--2-2------|
E|0-0-0--0--0-0--------------------------------------1-1-1-1--0-0------|
  Come what...     Come what...     Come what may... I’ve gotta leave you  


E|-------0-------------------------------------------------------------|
B|---------------1--------3--------1---------1-------1-------1-------0-|
G|-----2-------2--------0--------0---------2-------2-------2-------1---|
D|---2-------2--------2--------2---------0-------0-------3-------2-----|
A|-0-------0-----------------------------------------------------------|
E|------------------3--------3---------2-------2-------1-------0-------|
  Go away...                                          Oh...


[Bridge]

E|-------3--------1-------1--------0---------0---------------0-------0-|
B|---------------------------------------------------3-----------------|
G|-----2-------2--------0--------0---------2-------2-------2-------1---|
D|---2-------2--------2--------2---------0-------0-------3-------2-----|
A|-0-------0-----------------------------------------------------------|
E|------------------3--------3---------2-------2-------1-------0-------|
 

E|-------3--------1-------1--------0---------0---------------0---------|
B|---------------------------------------------------3---------------0-|
G|-----2-------2--------0--------0---------2-------2-------2-------1---|
D|---2-------2--------2--------2---------0-------0-------3-------2-----|
A|-0-------0-----------------------------------------------------------|
E|------------------3--------3---------2-------2-------1-------0-------|
                                                      It was really...

E|---------------------------------------------------------------------|
B|-------1-------1---------1-------1--------1-------1-------1-------0--|
G|-----2-------2--------0--------0--------2-------2-------2-------1----|
D|---2-------2--------2--------2--------0-------0-------3-------2------|
A|-0-------0-----------------------------------------------------------|
E|------------------3--------3--------2-------2-------1-------0--------|
  Really good...                     You made me happy every single day...

E|-------0-------------------------------------------------------------|
B|---------------1--------3--------1---------1-------1-------1-------0-|
G|-----2-------2--------0--------0---------2-------2-------2-------1---|
D|---2-------2--------2--------2---------0-------0-------3-------2-----|
A|-0-------0-----------------------------------------------------------|
E|------------------3--------3---------2-------2-------1-------0-------|
                                         But now, I’ve got to go awaaa

E|0-0-0--0--0-0----3-3-3--3--3-3----2-2-2--0--2-2----1-1-1-1--0-0------|
B|1-1-1--0--1-1----1-1-1--1--1-1----3-3-3--0--3-3----1-1-1-1--0-0------|
G|2-2-2--2--2-2----0-0-0--0--0-0----2-2-2--0--2-2----2-2-2-2--1-1------|
D|2-2-2--2--2-2----2-2-2--0--2-2----0-0-0--0--0-0----3-3-3-3--2-2------|
A|0-0-0--0--0-0--------------------------------------3-3-3-3--2-2------|
E|0-0-0--0--0-0--------------------------------------1-1-1-1--0-0------|
  Aaaaaaaaaaaaaaaaaaaaayyyyy!                Oh...            Oh...  

E|0-0-0--0--0-0----3-3-3--3--3-3----2-2-2--0--2-2----1-1-1-1--0-0------|
B|1-1-1--0--1-1----1-1-1--1--1-1----3-3-3--0--3-3----1-1-1-1--0-0------|
G|2-2-2--2--2-2----0-0-0--0--0-0----2-2-2--0--2-2----2-2-2-2--1-1------|
D|2-2-2--2--2-2----2-2-2--0--2-2----0-0-0--0--0-0----3-3-3-3--2-2------|
A|0-0-0--0--0-0--------------------------------------3-3-3-3--2-2------|
E|0-0-0--0--0-0--------------------------------------1-1-1-1--0-0------|
  Oh...              

E|0-0-0--0--0-0----3-3-3--3--3-3----2-2-2--0--2-2----1-1-1-1--0-0------|
B|1-1-1--0--1-1----1-1-1--1--1-1----3-3-3--0--3-3----1-1-1-1--0-0------|
G|2-2-2--2--2-2----0-0-0--0--0-0----2-2-2--0--2-2----2-2-2-2--1-1------|
D|2-2-2--2--2-2----2-2-2--0--2-2----0-0-0--0--0-0----3-3-3-3--2-2------|
A|0-0-0--0--0-0--------------------------------------3-3-3-3--2-2------|
E|0-0-0--0--0-0--------------------------------------1-1-1-1--0-0------|
  

[Outro]

E|0-0-0--0--0-0----3-3-3--3--3-3----2-2-2--0--2-2----1-1-1-1--0-0------|
B|1-1-1--0--1-1----1-1-1--1--1-1----3-3-3--0--3-3----1-1-1-1--0-0------|
G|2-2-2--2--2-2----0-0-0--0--0-0----2-2-2--0--2-2----2-2-2-2--1-1------|
D|2-2-2--2--2-2----2-2-2--0--2-2----0-0-0--0--0-0----3-3-3-3--2-2------|
A|0-0-0--0--0-0--------------------------------------3-3-3-3--2-2------|
E|0-0-0--0--0-0--------------------------------------1-1-1-1--0-0------|
                   Baby...          Baby...          Baby...

E|------1--------0-------------------------------1--------0------------|
B|-----1----------0-----------------------------1----------0-----------|
G|----2------------1---------------------------2------------1----------|
D|---3--------------2-------------------------3--------------2---------|
A|--3----------------2-----------------------3----------------2--------|
E|-1------------------0---------------------1------------------0-------|
          That’s when it’s callin me...           I said that’s when it’s calling me...

E|----------------5-------------5-------------5------------5-----------|
B|-------------3-------------4-------------3------------3--------------|
G|----------2--2--2-------2--2--2-------2--2--2------2--2--2-----------|
D|---------------------------------------------------------------------|
A|-------4-------------3-------------2------------1--------------------|
E|---------------------------------------------------------------------|
  Back...hoooooooooooooooooooooooooooooooooooooooooooooooooooooo

E|---------------0---------------0----------------------5~~~-----------|
B|-------0---------------0---------------0--------------5~~~-----------|
G|-----5-------5-------5-------5-------5----------------5~~~-----------|
D|---7-------7-------7-------7-------7------------------7~~~-----------|
A|-0-------0-------0-------0-------0--------------------7~~~-----------|
E|------------------------------------------------------5~~~-----------|
  Mmeeee............


***********************************
| ~   vibrato
***********************************
Suggest correction new What's this?
You can suggest a correction to this tab. Community and Mods will review your correction and vote to approve or reject it.
comments
print report bad tab
176 comments total. Showing first comments.
+19 reply
KevinMandich 0 wrote on April 13 2002, 12:00 am

This is a FULL song tab for the main guitar in the song, I made it since I have never been able to find a tab for the whole song. This is a beautiful song, so enjoy!
- Kevin Mandich

+8 reply
acoustic182 20 wrote on April 13 2002, 12:00 am

oh my god, this tab is awesome thank you thank you thank you... please keep making em

+8 reply
electricjeetar 0 wrote on April 13 2002, 12:00 am

holy *** dude how did you do this this is amazing
you rock man

guest
You may want to rate the tab now too:
select rating
Please do not post tabs as comments. Select "correction" instead!