Oops, an error
Loading. Please wait.

Babe Im Gonna Leave You Tab

version 3
version 3
12,584 views 12 this week
4 commentsread comments
1 2 3 4 5
accurate
x 8
add to favorites
launch autoscroll
font size
0
reset
how to read this tab
guitar tuner
Autoscroll
slow
fast
+/-
esc
set tempo
stop
Help us to improve Ultimate-Guitar.com Take our survey!
×
Author
Artist: Led Zeppelin
Song: Babe I'm Gonna Leave You
Album: Led Zeppelin I
Tabed By: Paul
E-mail: cr05@yosemite.net


Hi it's me agian this time with the whole song write out of the book!! This can't be 
wrong in less I copy it wrong, so if I make any mistake E-mail me at cr05@yosmite.net H
ere it is.


E|----------0-----------------------------------|
B|-------------------1---------3---------1------|
G|----2--2---------2---------0---------0--------|
D|----2----------2---------2---------2----------|
A|-0-----------0--------------------------------|
E|----------------------3----------3------------|


E|------------------------------------------------3-------0|
B|--------3---------1---------1---------0------------------|
G|------2---------2---------2---------1--------2--------2--|
D|----0---------0---------3---------2--------2--------2----|
A|-----------------------------------------0--------0------|
E|-2---------2---------1---------0-------------------------|


E|---------3----------0------------------------------------|
B|------------------------------3---------1-------1-------0|
G|------0----------0----------2---------2-------2-------1--|
D|----2----------2----------0---------0-------3-------2----|
A|---------------------------------------------------------|
E|-3----------3----------2---------2--------1-------0------|

        Babe,                     ba-by
E|--------3--------0---------------------------------------|
B|---------------------------3---------1---------3--------1|
G|-----2--------2----------0---------0---------2--------2--|
D|---2--------2----------2---------2---------0--------0----|
A|-0--------0----------------------------------------------|
E|--------------------3---------3---------2---------2------|

      ba-by       I'm gon-na leave you
E|--------------------------------------------------------| 
B|--------1---------0--------3------------------3--------1-|
G|------2---------1--------2--------2------------------0---|
D|----3---------2--------2--------2---------2-2------2-----|
A|---------------------0--------0--------------------------|
E|-1---------0----------------------------3--------3-------|


                I said      ba    by    
E|------------------------------------------------3-------0|
B|--------3---------1---------1---------0------------------|
G|------2---------2---------2---------1--------2--------2--|
D|----0---------0---------3---------2--------2--------2----|
A|-----------------------------------------0--------0------|
E|-2---------2---------1---------0-------------------------|

                  you     know   i'm
E|---------------------------------------------------------|
B|--------3---------1---------3---------1---------1-------0|
G|------0---------0---------2---------2---------2--------1-|
D|----2---------2---------0---------0---------3--------2---|
A|---------------------------------------------------------|
E|-3---------3---------2---------2---------1--------0------|

                 gon-na  leave   you.
E|--------3---------0--------------------------------------|
B|----------------------------3---------1---------3-------1|
G|-----2---------2----------0---------0---------2-------2--|
D|---2---------2----------2---------2---------0-------0----|
A|-0---------0---------------------------------------------|
E|---------------------3---------3---------2--------2------|

  I'll    leave you   when  the   sum-mer  time,
E|-------------------0-------------------------------------|
B|--------1----------0---------3---------1---------3------0|
G|------2---------1----------2---------2---------1-------1-|
D|----3---------2----------3---------3---------2-------2---|
A|---------------------------------------------------------|
E|-1---------0----------1---------1---------0--------0-----|

     leave you when the sum-mer    comes a  rol-lin
E|------------------------------------------------0-------0|
B|--------3---------1---------3---------0------------------|
G|------2---------2---------1---------1--------2---------2-|
D|----3---------3---------2---------2--------2---------2---|
A|-----------------------------------------0---------0-----|
E|-1---------1---------0---------0-------------------------|

      leave you when the   sum-mer   comes   a
E|---------3------------0---------------------------------0|
B|--------------------------------1---------1-------1-----0|
G|------0-----------------------2---------2-------2------1-|
D|----2----------0h2p0--------0---------0-------3-------2--|
A|---------------------------------------------------------|
E|-3----------3------------2---------2--------1-------0----|

                         long.
E|-0-0-0---0---0-0-0-0-0-0-0-0-0-------0--0-0---0---0--0---|
B|-1-1-1-1-1---8-6-6-6-6-6-6-6-6---0---1--1-1-1-1---8--6---|
G|-2-2-2-2-2---9-7-7-7-7-7-7-7-7---0---2--2-2-2-2---9--7---|
D|-2-2-2-2-2---9-7-7-7-7-7-7-7-7---0---2--2-2-2-2---7--7---|
A|-0-0-0-0-0---0-0-0-0-0-0-0-0-0---0---0--0-0-0-0---0--0---|
E|---------------------------------------------------------|

             Acoustic guitar 2
E|-0-----0--0----0--0--0--0--0--0--0--------0--0-0-0-----|
B|-5-----5--12---10-10-10-10-10-10-10---0---5--5-5-5-----|
G|-5-7-7-5--12---10-10-10-10-10-12-12---0---5--5-5-5-5---|
D|-7-5-5-7--14---12-12-12-12-12-12-12---0---7--7-7-7-7---|
A|-0-0-0-0--0----0--0--0--0--0--0--0--------0--------0---|
E|-------------------------------------------------------|

 Ba       ba,      ba,     ba,      ba,     ba,     ba      
E|----------------0--------------------------------------|  
B|--------------------------3--------1---------1---------1-|
G|-----2-------2----------0--------0---------2---------2---|
D|---2-------2----------2--------2---------0---------0-----|
A|-0-------0-----------------------------------------------|
E|-------------------3---------3--------2---------2--------|

      by,   mmm ba-by    I wan-na leave   you
E|----------------------------3---------0------------------|
B|--------1---------0-----------------------------3-------1|
G|------2---------1--------2---------2----------0--------0-|
D|----3---------2--------2---------2----------2--------2---|
A|---------------------0---------0-------------------------|
E|-1---------0-----------------------------3---------3-----|

  I ain't jok-in   wo-man  i've  got to   ram-ble,
E|------------------------------------------------3-------0|
B|--------3---------1---------1---------0------------------|
G|------2---------2---------2---------1--------2---------2-|
D|----0---------0---------3---------2--------2---------2---|
A|-----------------------------------------0---------0-----|
E|-2---------2---------1---------0-------------------------|

                      oh yeah,
E|---------------------------------------------------------|
B|--------3---------1---------1---------1---------1-------0|
G|------0---------0---------2---------2---------2--------1-|
D|----2---------2---------0---------0---------3--------2---|
A|---------------------------------------------------------|
E|-3---------3---------2---------2---------1---------0-----|

         Ba-by,   ba-by   I won't be there,
E|--------3---------0--------------------------------------|
B|----------------------------3---------1---------3-------1|
G|-----2---------2----------0---------0---------2--------2-|
D|---2---------2----------2---------2---------0--------0---|
A|-0---------0---------------------------------------------|
E|---------------------3---------3---------2---------2-----|

       I've real-ly   got    to   ram-ble,
E|---------------------------------------------------------|
B|--------1---------0---------3---------1--------3--------0|
G|------2---------1---------2---------2---------1--------1-|
D|----3---------2---------3---------3---------2--------2---|
A|---------------------------------------------------------|
E|-1---------0---------1---------1---------0--------0------|

    I can hear it cal-lin   me the way it
E|--------------------------------------------|
B|--------3---------1---------3---------0-----|
G|------2---------2---------1---------1-------|
D|----3---------3---------2---------2---------|
A|--------------------------------------------|
E|-1---------1---------0---------0------------|

                used to do
E|--------0---------0-------------------------|
B|----------------------------3---------1-----|
G|-----2---------2----------0---------0-------|
D|---2---------2----------2---------2---------|
A|-0---------0--------------------------------|
E|---------------------3---------3------------|

  I can  hear it   cal-lin  me back   home
E|-----------------------------0----------0---|
B|--------1---------1-------------------------|
G|------2---------2---------2----------1------|
D|----0---------0---------3----------2--------|
A|--------------------------------------------|
E|-2---------2---------1----------0-----------|

           Repet 2 times
E|-0-0-0---0----0----0-0-0-0-0-0-0-0------|
B|-1-1-1-1-1----8----6-6-6-6-6-6-6-6------|
G|-2-2-2-2-2----9----7-7-7-7-7-7-7-7------|
D|-2-2-2-2-2----9----7-7-7-7-7-7-7-7------|
A|-0-0-0-0-0----0----0-0-0-0-0-0-0-0------|
E|----------------------------------------|


E|---------------------------------------------|
B|-------5-------------8--------8--------6-----|
G|-----4-------------9--------7--------7-------|
D|---2------2/7----7--------7--------7---------|
A|-0--------0-0-----------0--------0-----------|
E|---------------------------------------------|


E|---------------------------------------------|
B|------------------8--------8--------6--------|
G|-----4/5--------9--------7--------7----------|
D|---2--------3/7--------7--------7------------|
A|-0--------0----------0--------0--------------|
E|---------------------------------------------|


E|---------------------------------------------------------|
B|------------------8--------8--------6-------------------8|
G|-----4/5--------9--------7--------7--------4/5--------9--|
D|---2--------3/7--------7--------7--------2--------3/7----|
A|-0--------0----------0--------0--------0--------0--------|
E|---------------------------------------------------------|


E|---------------------------------------------------------|
B|------------------8--------8--------6-------------------8|
G|-----4/5--------9--------7--------7--------4/5--------9--|
D|---2--------3/7--------7--------7--------2--------3/7----|
A|-0--------0----------0--------0--------0--------0--------|
E|---------------------------------------------------------|


E|---------------------------------------------------------|
B|-------8--------6-------------------8--------8--------6--|
G|-----7--------7--------4/5--------9--------7--------7----|
D|---7--------7--------2--------3/7--------7--------7------|
A|-0--------0--------0--------0----------0--------0--------|
E|---------------------------------------------------------|

          Ba  By,      c'mon,       Babe!
E|---------------------------------------------------------|
B|---------------------------------------------------------|
G|---------------------------------------------------------|
D|----7----7------7----7/5---5-------5------4--4------4--4-|
A|---------------------------------------------------------|
E|-0--5----5--0---5----5/3---3---0---3---0--2--2---0--2--2-|

             I'm gon-na leave you girl
E|-0-------0----------0------------0-0---0---0-0--3-3-3--0-|
B|-1-------1----------0---------3--1-1---0---1-1--1-1-1----|
G|-2-------2----------1---------0--2-2---0---2-2--0-0-0----|
D|-3-------3----2-----2---------0--2-2---0---2-2--2-2-2----|
A|--------------2-----2---------2--0-0-------0-0-----------|
E|-----1--------0----------0----0-----------------3-3-3----|


E|---------------------------------------------------------|
B|---------------------------------------------------------|
G|---------------------------------------------------------|
D|-----3--3-----------2--------7--7-------7---7/5---5---5-5|
A|----------------2---2------------------------------------|
E|-0---1--1---0---0---0----0---5--5---0---5---5/3---3-0-3-3|

                 Acoustic guitar solo
E|--------0------------------------------------------------|
B|-----------------3---------3---------1---------3--------1|
G|-----2---------2---------0---------0---------2---------2-|
D|---2---------2---------2---------2---------0---------0---|
A|-0---------0---------------------------------------------|
E|--------------------3---------3---------2---------2------|


E|---------------------------------------------------------|
B|-8--6---5h6p5\3---5---3----1h3p1p0--------------------1--|
G|-------------------------------------------2-2------2---2|
D|---------------------------------------------------------|
A|---------------------------------------------------------|
E|---------------------------------------------------------|


E|----------------------------3---------0------------------|
B|--------1---------0-----------------------------3-------3|
G|------2---------1--------2---------2----------0--------0-|
D|----3---------2--------2---------2----------2--------2---|
A|---------------------0---------0-------------------------|
E|-1---------0-----------------------------3---------3-----|


E|---------0-----------------------------------------------|
B|-0--1--2-------3p1p0h1p0---0-----------------------------|
G|-------------------------2---2p0-------------------------|
D|----------------------------------3p2p0--2p02p0---0---0--|
A|------------------------------------------------3---3----|
E|---------------------------------------------------------|


Well that wasint the whole song but close enough. 
Suggest correction
comments
print report bad tab
4 comments total. Showing first comments.
0 reply
Chris Mayer 10 wrote on April 11 2002, 12:00 am

Thanks!

0 reply
Brian Gelvin 649 wrote on February 15 2005, 12:00 am

Look you need to do it by how you think it is not from the book. I have a Led Zeppelin Early Days book and if i'm not mistaken it's copywrited.
What you did is plagerism. You need to do better. Your not a very good tabber.

0 reply
TarekWriter 10 wrote on September 1 2009, 04:21 pm

It is not plagiarism if he says that he got it from the book. While it was not exactly citing, he made it clear that he copied it out of the book. I do not know who Paul is, but it might be the person who tabbed it. You are an idiot, Brian Gelvin. Go back to school before you embarrass yourself.

guest
You may want to rate the tab now too:
select rating
Wanna post a correction for this tab? Suggest correction