Oops, an error
Loading. Please wait.

Black Country Woman Tab

version 2
version 2

Whole song

Interactive

37,909 views 54 this week
2 commentsread comments
1 2 3 4 5
excellent!
x 16
add to favorites
launch autoscroll
font size
0
reset
how to read this tab
guitar tuner
Tab Pro tools
  • play this tab
  • loop segment
  • change instrument
  • show fretboard
  • metronome
×
Best way to learn
"Black Country Woman"
Autoscroll
slow
fast
+/-
esc
set tempo
stop
Contributor
-----------------------------------------------------------------------------
                   Black Country Woman-Led Zeppelin
-----------------------------------------------------------------------------
Tabbed by:pinkfloyd323
email:none of ur business
Tuning:DGDGBD
                     (dont pay attention to the timing)
d--3--2--0--5---5-|-----3--2--0--5--0--------|--3--2-0-5-----5-|
b--3--2--0--0---0-|--0--3--2--0--0--0-------0|0-3--2-0-0--0--0-|
g--0--0--0--0---0-|--0--0--0--0--0--0-------0|0-0--0-0-0--0--0-|
d--0--0--0--0---0-|--0--0--0--0--0----------0|0-0--0-0-0--0--0-|
g--0--0--0--0---0-|--0--0--0--0--0-----3b4--0|0-0--0-0-0-----0-|
d-----------------|--------------------------|-----------------|

d---3-2--0--5--0--------|-----3--2--0---5-5---|---3-2--0--5--0--------|
b-0-3-2--0--0--0-------0|-(0)-3--2--0---0-0---|-0-3-2--0--0--0-----0--|
g-0-0-0--0--0--0-------0|-(0)-0--0--0---0-0---|-0-0-0--0--0--0-----0--|
d-0-0-0--0--0----------0|-(0)-0--0--0---0-0-0-|-0-0-0--0--0--------0--|
g-0-0-0--0--------3b4--0|-(0)-0--0--0---0-0-0-|-0-0-0--0-------3b4-0--|
d-----------------------|---------------------|-----------------------|

d-----3-2-0--5--5----|---3-2--0--0--0-------|-----------------------|
b-(0)-3-2-0--0--0--0-|-0-3-2--0--0--0------0|-----------------------|
g-(0)-0-0-0--0--0--0-|-0-0-0--0--0--0------0|-Play------------------|
d-(0)-0-0-0--0--0----|-0-0-0--0--0---------0|--all-2x---------------|
g-(0)-0-0-0--0--0----|-0-0-0--0--------3b4-0|-----------------------|
d--------------------|----------------------|-----------------------|
 Then:                * 1st time through   *

d----3--2--0-------------|--|
b-0--3--0--0-----0-------|--|
g-0--0--0--0--0--0--3--5-|--|
d-0--0--0--0--0--0--3--5-|--|
g-0--0--0--0--0--0--3--5-|--|
d------------------------|--|
 * 2nd time through     *
Then:
d------8--7--5--8--8-|----8--7--5---7-8-7-8-|----8--7--5--8-8---|
b------8--7--5--8--8-|----8--7--5---7-8-7-8-|----8--7--5--8-8---|
g-(5)--5--5--5--5--5-|-5--5--5--5---5-5-5-5-|-5--5--5--5--5-5---|
d-(5)--5--5--5--5--5-|-5--5--5--5---5-5-5-5-|-5--5--5--5--5-5---|
g-(5)--5--5--5--5--5-|-5--5--5--5---5-5-5-5-|-5--5--5--5--5-5---|
d--------------------|----------------------|-------------------|

d----8-7-5--7-8------|-----3-2-0--0----0-----0--|---3-2-0--0-0-------|-----|
b----8-7-5--7-8----0-|-(0)-3-2-0--0--0-0--0--0-0|-0-3-2-0--0-0------0|-----|
g-5--5-5-5--5-5--3-0-|-(0)-0-0-0--0--0-0--0--0-0|-0-0-0-0--0-0------0|-----|
d-5--5-5-5--5-5--3-0-|-(0)-0-0-0--0--0-0--0--0-0|-0-0-0-0--0-0------0|-----|
g-5--5-5-5--5-5--3-0-|-(0)-0-0-0--0----0--0--0--|-0-0-0-0--0-0--3b4-0|-----|
d--------------------|--------------------------|--------------------|-----|

d---3-2--0--0----0---0---|---3-2--0------------|
b-0-3-2--0--0--0-0-0-0-0-|-0-3-2--0----0-------|
g-0-0-0--0--0--0-0-0-0-0-|-0-0-0--0-0--0-3----5|
d-0-0-0--0--0--0-0-0-0-0-|-0-0-0--0-0--0-3----5|
g-0-0-0--0--0----0-0-0---|-0-0-0--0-0--0-3----5|
d------------------------|---------------------|

d----------------|-------------------|---------------|----------------------|
b----8-7--5--8---|----8-7--5--7-8-7-8|---8-7--5--8---|----8-7--5--7-8-----0-|
g-5--5-5--5--5--5|-5--5-5--5--5-5-5-5|-5-5-5--5--5--5|-5--5-5--5--5-5-----0-|
d-5--5-5--5--5--5|-5--5-5--5--5-5-5-5|-5-5-5--5--5--5|-5--5-5--5--5-5-----0-|
g-5--5-5--5--5--5|-5--5-5--5--5-5-5-5|-5-5-5--5--5--5|-5--5-5--5--5-5-3b4-0-|
d---------------0|-0-----------------|--------------0|-0--------------------|

d-----3-2--0--0-----0---|---3-2--0-0--0--------|-----------------|
b-(0)-3-2--0--0--0--0-0-|-0-3-2--0-0--0------0-|-----------------|
g-(0)-0-0--0--0--0--0-0-|-0-0-0--0-0--0------0-|-----------------|
d-(0)-0-0--0--0--0--0-0-|-0-0-0--0-0--0------0-|-----------------|
g-(0)-0-0--0--0-----0---|-0-0-0--0-0--0--3b4-0-|-----------------|
d-----------------------|----------------------|-----------------|
 * Play 2x                                    *

d------0-0--0--0-----|------------------|---3-2-0--0---0------|
b---1--1-1--1--1-----|---------------3-0|-0-3-2-0--0-0-0-0----|
g-0-2--2-2--2--2--3-/|-5--5-5-5-5-5x-3-0|-0-0-0-0--0-0-0-0----|
d-0-0--0-0--0--0--3-/|-5--5-5-5-5-5x-3-0|-0-0-0-0--0-0-0-0----|
g-0-2--2-2--2--2--3-/|-5--5-5-5-5-5x-3-0|-0-0-0-0--0---0------|
d-----------------3-/|-5----------------|---------------------|

d---3-2-0-0-0--------|-----3-2-0-0---0--|---3-2--0-0-0-------------|
b-0-3-2-0-0-0------0-|-(0)-3-2-0-0-0-0-0|-0-3-2--0-0-0------0------|
g-0-0-0-0-0-0------0-|-(0)-0-0-0-0-0-0-0|-0-0-0--0-0-0------0------|
d-0-0-0-0-0-0------0-|-(0)-0-0-0-0-0-0-0|-0-0-0--0-0-0------0------|
g-0-0-0-0-0-0--3b4-0-|-(0)-0-0-0-0---0--|-0-0-0--0-0-0--3b4-0------|
d--------------------|------------------|--------------------------|

d-----3-2-0-0---0--|---3-2-0--------|------------|------------|------|
b-(0)-3-2-0-0-0-0-0|-0-3-2-0---0----|-5-5-5-5-5-5|-55-55-55-55|------|
g-(0)-0-0-0-0-0-0-0|-0-0-0-0-0-0-3-5|-5-5-5-5-5-5|-55-55-55-55|------|
d-(0)-0-0-0-0-0-0-0|-0-0-0-0-0-0-3-5|-5-5-5-5-5-5|-55-55-55-55|------|
g-(0)-0-0-0-0---0--|-0-0-0-0-0-0-3-5|-5-5-5-5-5-5|-55-55-55-55|------|
d------------------|----------------|------------|------------|------|

d------------------|-------------------|---3-2-0--0-0-0-0--|
b-5--5-5--5--5--5-5|-5-5-5-5--5-5--3--0|-0-3-2-0--0-0-0-0--|
g-5--5-5--5--5--5-5|-5-5-5-5--5-5--3--0|-0-0-0-0--0-0-0-0--|
d-5--5-5--5--5--5-5|-5-5-5-5--5-5--3--0|-0-0-0-0--0-0-0-0--|
g-5--5-5--5--5--5-5|-5-5-5-5--5-5-----0|-0-0-0-0--0-0-0-0--|
d------------------|-------------------|-------------------|
                                        *play 4 times     *
d-----------------------------------------(-8-)-------|
b-----------------------------------------(-8-)-------|
g---Play the part below the second "then--(-5-)-------|
d---------(up above)----------------------(-5-)-------|
g-----------------------------------------(-5-)-------|
d-----------------------------------------------------|

the rest is just the previous tabs played 2 more times

 Ending:

d-0--0---0---0--0--0-2--0-|-3-----------------------------------|
b-0--3---2---1--0--0-0--0-|-0-----------------------------------|
g-0--0---0---0--0--0-0--0-|-0-----------------------------------|
d-0--3---2---1--0--0-0--0-|-0-----------------------------------|
g-0--0---0---0--0--0-0--0-|-0-----------------------------------|
d-------------------------|-------------------------------------|
comments
print report bad tab
2 comments total.
0 reply
flibit wrote on March 31 2006, 08:42 pm

not sure if its 100%, but way better than ver1!!!

0 reply
Zeppman918 wrote on November 16 2009, 09:42 pm

i like this, it sounds good

I want to post or [tab]
guest
You may want to rate the tab now too:
select rating
Please do not post tabs as comments. Select "correction" instead!