Oops, an error
Loading. Please wait.

Black Dog Tab

version 1
version 1
1,857,052 views 2,792 this week
185 commentsread comments
1 2 3 4 5
excellent!
x 714
add to favorites
launch autoscroll
font size
0
reset
how to read this tab
guitar tuner
Tab Pro tools
  • play this tab
  • loop segment
  • change instrument
  • show fretboard
  • metronome
×
Best way to learn
"Black Dog"
Autoscroll
slow
fast
+/-
esc
set tempo
stop
Contributor
[Verse]

Hey, hey, mama, said the way you move, gonna make you sweat, gonna make you groove

e|------|----------------|-------------------|-------------------|---------|
B|------|---------------5|-------------------|-------------------|---------|
G|------|-----5-------7--|-5h7p5-----5-------|-------------------|---------|
D|---5-6|-7-------7------|-------7-7-----7---|-5-7-7---------2---|2--------|
A|-7----|---7------------|-------------------|-------5-7---5-0---|0--------|
E|------|----------------|-------------------|-----------8-------|---------|

Unh, uh, child, way you shake that thing, gonna make you burn, gonna make you sting

e|------|----------------|-------------------|-------------------|---------|
B|------|---------------5|-------------------|-------------------|---------|
G|------|-----5-------7--|-5h7p5-----5-------|-------------------|---------|
D|---5-6|-7-------7------|-------7-7-----7---|-5-7-7---------2---|2--------|
A|-7----|---7------------|-------------------|-------5-7---5-0---|0--------|
E|------|----------------|-------------------|-----------8-------|---------|

Hey, hey, baby when you walk that way, watch heatache drip, cant keep away

e|------|----------------|-------------------|-------------------|---------|
B|------|---------------5|-------------------|-------------------|---------|
G|------|-----5-------7--|-5h7p5-----5-------|-------------------|---------|
D|---5-6|-7-------7------|-------7-7-----7---|-5-7-7---------2---|2--------|
A|-7----|---7------------|-------------------|-------5-7---5-0---|0-----5-6|
E|------|----------------|-------------------|-----------8-------|----7----|

[Chorus]

e|----------------|----------------|-----------------|---------------|----------------|
B|----------------|----------------|-----------------|---------------|---------------5|
G|----------------|----------------|-----------------|---------------|-----5-------7--|
D|-----5----------|-------5--------|---------5-------|------------5-6|-7-------7------|
A|-7-------7-----5|-6-7-------7----|-5-6-7-------7---|--5-6-7-5-7----|---7------------|
E|---7---------7--|-----7---------7|-------7---------|7--------------|----------------|

                                                                  Ah
e|-------------------|----------------|--------------|
B|-------------------|----------------|--------------|
G|-5h7p5-----5-------|----------------|---------0---2|
D|-------7-7-----7---|-5-7-7---------2|---2-----0---2|
A|-------------------|-------5-7---5-0|---0-------3-0|
E|-------------------|-----------8----|--------------|

  yeah,           ah  yeah            ah,       ah,   ah,                ah
e|-------------------|-------------------|--------------|-------------------|
B|-------------------|-------------------|--------------|-------------------|
G|-4b(6)r4p2-4-2-----|-4b(6)r4p2-4-2-----|-------5-----2|-4b(6)r4p2---------|
D|-------------------|-------------------|--------------|-----------4-2-----|
A|-------------------|-------------------|--------------|---------------3---|
E|-------------------|-------------------|--------------|-------------------|

  yeah,            ah     yeah            ah,    ah,   ah
e|-------------------|----------------------|------------------|---------|
B|-------------------|----------------------|------------------|---------|
G|-4b(6)r4p2-4-2----2|---2-4b(6)r4p2-4-2---2|-----5-----2-----2|---------|
D|-------------------|----------------------|------------------|-2-------|
A|-------------------|----------------------|------------------|-0-------|
E|-------------------|----------------------|------------------|---------|

I gotta roll, cant stand still, gotta flamin heart, cant get my fill

e|------|----------------|-------------------|----------------------------|
B|------|---------------5|-------------------|----------------------------|
G|------|-----5-------7--|-5h7p5-----5-------|----------------------------|
D|---5-6|-7-------7------|-------7-7-----7---|-5-7-7---------2---2--------|
A|-7----|---7------------|-------------------|-------5-7---5-0---0--------|
E|------|----------------|-------------------|-----------8----------------|

Eyes that shine burnin red, dreams of you all through my head

e|------|----------------|-------------------|-------------------|---------|
B|------|---------------5|-------------------|-------------------|---------|
G|------|-----5-------7--|-5h7p5-----5-------|-------------------|---------|
D|---5-6|-7-------7------|-------7-7-----7---|-5-7-7---------2---|2--------|
A|-7----|---7------------|-------------------|-------5-7---5-0---|0--------|
E|------|----------------|-------------------|-----------8-------|---------|

Ah ah ah ah ah ah ah ah ah ah ah ah ahhhhhhhhhhh


[Verse]

Hey hey  ba--by,  oh     ba--by,   pretty baby, darlin cant you do me now
e|--|---------------|--------------|-----------------|------------------------|
B|--|---------------|-----5--------|-----------------|------------------------|
G|-2|-----2--------2|-----5---2----|-----2-----2-----|------------------------|
D|-2|-----2--------2|-----5---2----|-----2-----2----5|-----------------4------|
A|-0|-----0--------0|-----3---0----|-----0-----0-----|------------------------|
E|--|-3-------3-----|-4h5----------|-2h3-----3-------|------------------------|

e|----------------|----------------|------------------|-------------|
B|----------------|----------------|------------------|-------------|
G|-----2---------2|-0h2-5---2-----2|-----2------------|------------2|
D|-----2---------2|-0h2-5---2-----2|-----2-----------5|------4-----2|
A|-----0---------0|---------0-----0|-----0------------|------------0|
E|-3-------3------|----------------|-3-------3-5------|-------------|

Hey  ba--by    oh     ba--by      pretty baby,move me while you do me now
e|----------------|----------------|------------------|------------------------|
B|----------------|----------------|------------------|------------------------|
G|-----2---------2|-0-2-5---2-----2|-----2------------|-----------------------2|
D|-----2---------2|-0-2-5---2-----2|-----2-----------5|--------------4--------2|
A|-----0---------0|---------0-----0|-----0------------|-----------------------0|
E|-3-------3------|----------------|-3-------3-5------|------------------------|

e|----------------|----------------|------------------|------------------|
B|----------------|----------------|------------------|------------------|
G|-----2---------2|-0-2-5---2-----2|-----2------------|------------------|
D|-----2---------2|-0-2-5---2-----2|-----2-----------5|--------4---------|
A|-----0---------0|---------0-----0|-----0------------|------------------|
E|-3-------3------|----------------|-3-------3-5------|------------------|

Didnt take too long fore i found out what people mean by down and out

e|------|----------------|-------------------|----------------------------|
B|------|---------------5|-------------------|----------------------------|
G|------|-----5-------7--|-5h7p5-----5-------|----------------------------|
D|---5-6|-7-------7------|-------7-7-----7---|-5-7-7---------2---2--------|
A|-7----|---7------------|-------------------|-------5-7---5-0---0--------|
E|------|----------------|-------------------|-----------8----------------|

Spent my money, took my car, started tellin her friends she gonna be a star

e|------|----------------|-------------------|-------------------|---------|
B|------|---------------5|-------------------|-------------------|---------|
G|------|-----5-------7--|-5h7p5-----5-------|-------------------|---------|
D|---5-6|-7-------7------|-------7-7-----7---|-5-7-7---------2---|2--------|
A|-7----|---7------------|-------------------|-------5-7---5-0---|0--------|
E|------|----------------|-------------------|-----------8-------|---------|

I dont know, but Ive been told, a big legged woman aint got no soul

e|------|----------------|-------------------|-------------------|---------|
B|------|---------------5|-------------------|-------------------|---------|
G|------|-----5-------7--|-5h7p5-----5-------|-------------------|---------|
D|---5-6|-7-------7------|-------7-7-----7---|-5-7-7---------2---|2--------|
A|-7----|---7------------|-------------------|-------5-7---5-0---|0-----5-6|
E|------|----------------|-------------------|-----------8-------|----7----|


[Chorus]

e|----------------|----------------|-----------------|---------------|----------------|
B|----------------|----------------|-----------------|---------------|---------------5|
G|----------------|----------------|-----------------|---------------|-----5-------7--|
D|-----5----------|-------5--------|---------5-------|------------5-6|-7-------7------|
A|-7-------7-----5|-6-7-------7----|-5-6-7-------7---|--5-6-7-5-7----|---7------------|
E|---7---------7--|-----7---------7|-------7---------|7--------------|----------------|

                                                                  Ah
e|-------------------|----------------|--------------|
B|-------------------|----------------|--------------|
G|-5h7p5-----5-------|----------------|---------0---2|
D|-------7-7-----7---|-5-7-7---------2|---2-----0---2|
A|-------------------|-------5-7---5-0|---0-------3-0|
E|-------------------|-----------8----|--------------|

  yeah,           ah  yeah            ah,       ah,   ah,                ah
e|-------------------|-------------------|--------------|-------------------|
B|-------------------|-------------------|--------------|-------------------|
G|-4b(6)r4p2-4-2-----|-4b(6)r4p2-4-2-----|-------5-----2|-4b(6)r4p2---------|
D|-------------------|-------------------|--------------|-----------4-2-----|
A|-------------------|-------------------|--------------|---------------3---|
E|-------------------|-------------------|--------------|-------------------|

  yeah,            ah     yeah            ah,    ah,   ah
e|-------------------|----------------------|------------------|---------|
B|-------------------|----------------------|------------------|---------|
G|-4b(6)r4p2-4-2----2|---2-4b(6)r4p2-4-2---2|-----5-----2-----2|---------|
D|-------------------|----------------------|------------------|-2-------|
A|-------------------|----------------------|------------------|-0-------|
E|-------------------|----------------------|------------------|---------|

All i ask for, all I pray, steady loaded woman gonna come my way

e|------|----------------|-------------------|----------------------------|
B|------|-----4-------7-8|-5h7p5-----4-------|----------------------------|
G|---4-5|-6-------6------|-------6-6-----6---|-4-6-6----------------------|
D|-7----|---7------------|-------------------|-------5-7---4--------------|
A|------|----------------|-------------------|-----------7---7------------|
E|------|----------------|-------------------|----------------------------|
 
 
e|------|----------------|-------------------|----------------------------|
B|------|---------------5|-------------------|----------------------------|
G|------|-----5-------7--|-5h7p5-----5-------|----------------------------|
D|---5-6|-7-------7------|-------7-7-----7---|-5-7-7---------2---2--------|
A|-7----|---7------------|-------------------|-------5-7---5-0---0--------|
E|------|----------------|-------------------|-----------8----------------|

Need a woman. gonna hold my hand, will tell me no lies, make me a happy man

e|------|----------------|-------------------|----------------------------|
B|------|-----4-------7-8|-5h7p5-----4-------|----------------------------|
G|---4-5|-6-------6------|-------6-6-----6---|-4-6-6----------------------|
D|-7----|---7------------|-------------------|-------5-7---4--------------|
A|------|----------------|-------------------|-----------7---7------------|
E|------|----------------|-------------------|----------------------------|
 
 
e|------|----------------|-------------------|----------------------------|
B|------|---------------5|-------------------|----------------------------|
G|------|-----5-------7--|-5h7p5-----5-------|----------------------------|
D|---5-6|-7-------7------|-------7-7-----7---|-5-7-7---------2------------|
A|-7----|---7------------|-------------------|-------5-7---5-0------------|
E|------|----------------|-------------------|-----------8----------------|

Ah ah ah ah ah ah ah ah ah ah ah ah ahhhhhhhhhhh
e|-----------------------------------------------------------|
B|-----------------------------------------------------------|
G|-----------------------------------------------------------|
D|-----------------------------------------------------------|
A|---------------------------------------------0/4-0-----0-3/|
E|-----------------------------------------0/2-------2-0-----|

[Outro]

e|--------------------5----|--------------------5----|--------------------5--------|
B|-------------------------|-------------------------|----------------------------3|
G|--------2---2-4b(6)------|--------2---2-4b(6)------|--------2---2-4b(6)---5b(7)--|
D|----2-4---4--------------|----2-4---4--------------|----2-4---4------------------|
A|-/4-------------------0-3|-/4-------------------0-3|-/4--------------------------|
E|-------------------------|-------------------------|-----------------------------|

e|--------------------5----|--------------------5----|--------------------5--------|
B|-------------------------|-------------------------|----------------------------3|
G|--------2---2-4b(6)------|--------2---2-4b(6)------|--------2---2-4b(6)---5b(7)--|
D|----2-4---4--------------|----2-4---4--------------|----2-4---4------------------|
A|-/4-------------------0-3|-/4-------------------0-3|-/4--------------------------|
E|-------------------------|-------------------------|-----------------------------|

e|----------------|-5---5-7b(9)-----7-5|-5-5-5--------8-10|-10-10b(12)---12/10-8-10/12-10|
B|---------------5|-5------------------|-5-5-5/10---------|------------------------------|
G|-5-4-2---2h4-2--|--------------------|------------------|------------------------------|
D|-------4--------|--------------------|------------------|------------------------------|
A|----------------|--------------------|------------------|------------------------------|
E|----------------|--------------------|------------------|------------------------------|

e|-8-10---8---10-10---|---8----------10b(12)-10|-8-10---------------------|
B|--------------------|-----------10-----------|----------------15b(17)---|
G|--------------------|------------------------|--------------0-----------|
D|--------------------|------------------------|--------------------------|
A|--------------------|------------------------|--------------------------|
E|--------------------|------------------------|--------------------------|

e|-----------------------------|-------------------------|-----------17-----------------|
B|-15-----r15-13-15b(17)-----15|-13---15b(17)-15---------|----------------------------17|
G|-----------------------------|-------------------------|-19b(21)--------19b(21)-------|
D|-----------------------------|-------------------------|------------------------------|
A|-----------------------------|-------------------------|------------------------------|
E|-----------------------------|-------------------------|------------------------------|

e|-17--------------17-20----------|--------------------------|-17-----------------------|
B|----17-20b(22)-----------20b(22)|-r20-------17-------------|----20-----17-20b(22)-----|
G|--------------------------------|-------x--------19b(21)---|--------------------------|
D|--------------------------------|--------------------------|--------------------------|
A|--------------------------------|--------------------------|--------------------------|
E|--------------------------------|--------------------------|--------------------------|

e|---17---------------------|------------------20|---------------------------------|
B|------20-17---------------|--------20b(22)-----|---20b(22)r20-17---19b(21)-------|
G|--------------17b(19)---20|--------------------|-------------------------------19|
D|--------------------------|--------------------|---------------------------------|
A|--------------------------|--------------------|---------------------------------|
E|--------------------------|--------------------|---------------------------------|

e|----------------------|---------5-------------5----|---------5-------------5----|
B|-----------------5-5-5|-------5---8p5-------5---8p5|-------5---8p5-------5---8p5|
G|-17----19-17----------|-7b(9)---------7b(9)--------|-7b(9)---------7b(9)--------|
D|----19----------------|----------------------------|----------------------------|
A|----------------------|----------------------------|----------------------------|
E|----------------------|----------------------------|----------------------------|

e|---------5-------------5----|-------------------------|------------------|--------------------|
B|-------5---8p5-------5---8p5|-8p5---------------------|------------------|--------------------|
G|-7b(9)---------7b(9)--------|-----7p5-7-5---7-5-------|-----------5------|-5-7b(9)-------7-7-7|
D|----------------------------|-------------7-----------|-7-5-7-----------7|-------------7------|
A|----------------------------|-------------------------|------------------|--------------------|
E|----------------------------|-------------------------|------------------|--------------------|

e|------------------------|------------------|--------------------|--------------------|
B|-----------------8------|------------------|--------------------|--------------------|
G|-7b(9)---7-5---5---7b(9)|-7-5---7----------|-5---------5--------|-7---------5--------|
D|-------------7----------|-----7-------5-6-7|-----5-6-7-----5-6-7|-----5-6-7-----5-6-7|
A|------------------------|------------------|--------------------|--------------------|
E|------------------------|------------------|--------------------|--------------------|

e|----------------------|-----------------|-------------------5-----|-------------------5-----|
B|----------------------|-----------------|-------------------------|-------------------------|
G|-7---------5----------|-----------------|-------2---2-4b(6)-------|-------2---2-4b(6)-------|
D|-----5-6-7-------5-6-7|-----------------|---2-4---4---------------|---2-4---4---------------|
A|-----------------5-6-7|-5-3-4---------3/|-4---------------------3/|-4---------------------3/|
E|----------------------|-------3---------|-------------------------|-------------------------|

e|-------------------5-----|-----------------|-----------------5----|----8---9---10b(12)---|
B|-------------------------|-----------------|---------------5---/10|----------------------|
G|-------2---2-4b(6)-------|-----------------|-------2---2/6--------|----------------------|
D|---2-4---4---------------|-----------------|---2-4---4------------|----------------------|
A|-4-----------------------|-5-3-4---------3/|-4--------------------|----------------------|
E|---------------------4-7-|-------3---------|----------------------|----------------------|

e|-10---10b(12)---10---10b(12)-10|-8-10-10b(12)-8----------|----8--------------------|
B|-------------------------------|--------------------10-10|------------10-13b(16)---|
G|-------------------------------|-------------------------|-------------------------|
D|-------------------------------|-------------------------|-------------------------|
A|-------------------------------|-------------------------|-------------------------|
E|-------------------------------|-------------------------|-------------------------|

e|--------------------------|--------------------------|----------------------|
B|----10-----x-10-13b(16)---|---10-----10-10-15-15b(17)|---15-13----15---13---|
G|--------------------------|--------------------------|---------14---------14|
D|--------------------------|--------------------------|----------------------|
A|--------------------------|--------------------------|----------------------|
E|--------------------------|--------------------------|----------------------|

e|-----------15----------|-------------------15b(17)|----------------------15b(17)|
B|-15---13--------15b(17)|-r15p13----15-13----------|-15p13----15-13----13--------|
G|-----------------------|--------14----------------|-------14-------14-----------|
D|-----------------------|--------------------------|-----------------------------|
A|-----------------------|--------------------------|-----------------------------|
E|-----------------------|--------------------------|-----------------------------|

***********************************
| h   hummer-on
| p   pull-off
| b   bend
| r   return bend
| /   slideup
| x   deadnote
|(n)  ghost note
***********************************
comments
print report bad tab
185 comments total. Showing first comments.
+5 reply
untilted wrote on July 28 2003, 12:00 am

nice tab redwing...

i salute you!

+5 reply
brassmonkey073 wrote on April 24 2004, 12:00 am

ZEPPELIN!!!!!!

+5 reply
ironman4 wrote on May 9 2004, 12:00 am

u got the words wrong

but great tab

yay

I want to post or [tab]
guest
You may want to rate the tab now too:
select rating
Please do not post tabs as comments. Select "correction" instead!