Oops, an error
Loading. Please wait.

Black Dog Tab

version 5
version 5
40,432 views 75 this week
3 commentsread comments
1 2 3 4 5
x 14
add to favorites
launch autoscroll
font size
0
reset
how to read this tab
guitar tuner
Autoscroll
slow
fast
+/-
esc
set tempo
stop
Help us to improve Ultimate-Guitar.com Take our survey!
×
Author
[Intro]
 Guitars 1 and 2
                8va__________________________________________________________________________
e|--------------------------------------------------------------------------------------------|
B|----------------------2--2------------------------------------------------------------------|
G|--------------------------------------------------------------------------------------------|
D|--------------------------------------------------------------------------------------------|
A|--------------------------------------------------------------------------------------------|
E|----------------0--0--0--0--0--0--0--0--0-0-0-0-0-0-0-0-0-0-0-0-0-0-0-0-0-0-0--0-0-0-0-0-0--|
This pitch is a tape effect.


 [Verse 1]
 Hey, hey mama,said the way you move, gon-na make you sweat, gon-na make you groove,
 Guitars 1 and 2*                                                                 A5
e|-----------------------------------------------------------------------------------|
B|-------------------------------5---------------------------------------------------|
G|-----------------5^~--------7-----5--7hp5--------5^~-------------------------------|
D|-----5--6--7-----------7-------------------7--7--------7----5--7--7-------------2--|
A|--7-----------7------------------------------------------------------5--7\3--5--0--|
E|-----------------------------------------------------------------------------------|
*Guitar 2 enters and sustains its A5 chord into Verse 2.


 Verse 2 and 3:
 Unh, nh child, way you shake that thing, gon-na make you burn, gon-na make you sting.
 Heh, hey baby when you walk that way, watch heartache drip, can't keep away.
e|-------------------------------------------------------------------------------------|
B|o-------------------------------5---------------------------------------------------o|
G|-------------------5~--------7-----5--7hp5--------5^~--------------------------------|
D|------5--6--7-----------7-------------------7--7--------7----5--7--7-------------2---|
A|o--7-----------7------------------------------------------------------5--7\3--5--0--o|
E|-------------------------------------------------------------------------------------|


e|---------------------------------------------------|
B|---------------------------------------------------|
G|---------------------------------------------------|
D|---------------5^~---------------------5^~---------|
A|---5--6--7-----------7-----5--6--7-----------7-----|
E|7-----------7-----------7-----------7-----------7--|


e|-------------------------------------------------------------------|
B|----------------------------------------------------------------5--|
G|---------------------------------------------------5^~-------7-----|
D|------------5^~------------------------5--6--7------------7--------|
A|5--6--7-----------7-----5--6--7--5--7-----------7------------------|
E|---------7-----------7---------------------------------------------|


e|--------------------------------------------------------------------|
B|--------------------------------------------------------------------|
G|5--7hp5--------5^~~~~-------------------------------------2------2--|
D|---------7--7--------7--5--7--7-------------2------2------2------2--|
A|---------------------------------5--7\3--5--0------0---------3^~-0--|
E|--------------------------------------------------------------------|
                                                                  Ah_


 [Chorus 1]
 Guitars 3*
e|--------------------------------------------------------------------------------|
B|--------------------------------------------------------------------------------|
G|4B--rp2-4--2~-------4B--rp2-4--2~~~~~~~~~~5^~--------2------4B--rp2-------------|
D|--------------------------------------------------------------------4--2--------|
A|--------------------------------------------------------------------------3^~---|
E|--------------------------------------------------------------------------------|
|__ yeah,      ah,____ yeah,         ah,__ ah,__      ah,____      ah,___
|Guitar 1 and 2*
|---------------------------------------------------------------------|
|---------------------------------------------------------------------|
|2----------2------2----------2----2--2--5-------2------2----------2--|
|2----------2------2----------2----2--2--5-------2------2----------2--|
|0--------3\0------0--------3\0----0--0--3-------0------0--------3\0--|
|---------------------------------------------------------------------|
*Guitars 1, 2, and 3 are too be played evenly but it isn't shown like that.


e|------------------------------------------------------------------------|
B|------------------------------------------------------------------------|
G|----4B--rp2-4--2----2----2-4B--rp2-4--2----2------5^~-------2------2----|
D|------------------------------------------------------------------------|
A|------------------------------------------------------------------------|
E|------------------------------------------------------------------------|
|____ yeah,__       ah____  yeah,__         ah_____ ah,___  ah,___
|                                                         A5
|---------------------------------------------------------------|
|---------------------------------------------------------------|
|----2----------2------2----------2--------5-------2------------|
|----2----------2------2----------2--------5-------2------2/2/--|
|----0--------3\0------0--------3\0--------3-------0-------0----|
|----------------------------------------------------------*----|
Guitar 1 begins a slide up to A, while Guitar 2 repeats A5

 [Verse 4]
 I got-ta roll, can't stand still, got-ta flamein' heart, can't get my_ fill.
 Guitar 3 out
 Guitar 1 and 2*
e|-------------------------------------------------------------------------------|
B|-------------------------------------------------------------------------------|
G|-------------------------------------------------------------------------------|
D|/7/2---------------------------------------------------------------------------|
A|--0----------------------------------------------------------------------------|
E|-------------------------------------------------------------------------------|
*Guitar 1 fades out and Guitar 2 sustains.


 Guitar 1 and 2
e|-------------------------------------------------------------------------------------------|
B|-----------------------------5-------------------------------------------------------------|
G|---------------5^~--------7-----5--7hp5--------5^~-----------------------------------------|
D|---5--6--7-----------7-------------------7--7--------7----5--7--7--------------2------2----|
A|7-----------7------------------------------------------------------5--7--3--5--0------0----|
E|-------------------------------------------------------------------------------------------|


 [Verse 5]
 Eyes that shine,__ burn-in' red,__ dreams of you__ all through my head.__
e|------------------------------------------------------------------------|
B|------------------------------------------------------------------------|
G|------------------------------------------------------------------------|
D|2-----------------2--------------------------------------2\-------------|
A|0-----------------0-----------------------------------------------------|
E|------------------------------------------------------------------------|


e|-------------------------------------------------------------------------------------|
B|-----------------------------5-------------------------------------------------------|
G|---------------5^~--------7-----5--7hp5--------5^~-----------------------------------|
D|---5--6--7-----------7-------------------7--7--------7----5--7--7-------------2------|
A|7-----------7------------------------------------------------------5/7--3--5--0------|
E|-------------------------------------------------------------------------------------|


 Guitar 1
e|----------------------------------------------------------------------|
B|----------------------------------------------------------------------|
G|-------------------------------------------------------------------2--|
D|2------------------------------------------------------------------2--|
A|0------------------------------------------------------------------0--|
E|----------------------------------------------------------------------|
|Ah  ah  ah  ah  ah  ah  ah  ah  ah  ah  ah  ah  ah._______________ Hey
|Guitar 2
|----------------------------------------------------------------------|
|-------------------------------------------------------------------5--|
|-------------------------------------------------------------------2--|
|-------------------------------------------------------------------2--|
|----------------------------------------------------------------------|
|----------------------------------------------------------------------|


 [Chorus 2]
e|-----------------------------------------------|
B|--------------------------------5----2---------|
G|--------2-----------2-----------5----2------2--|
D|--------2-----------2-----------5----2------2--|
A|--------0-----------0----------(3)---0------0--|
E|2-3h---------3p2---------4--5h-----------------|
|hey ba - by,      oh_____      ba - by
|-----------------------------------------------|
|p2----5----2------5--p2--3h--5----2------5-----|
|------2----2------2----------2----2------2-----|
|------2----2------2----------2----2------2-----|
|-----------------------------------------------|
|-----------------------------------------------|


e|--------------------------------------------------------------|
B|--------------------------------------------------------------|
G|------2----0--2--------------------2----------2------------2--|
D|------2----0--2----5-------4-------2----------2------------2--|
A|------0-------0--------------------0----------0------------0--|
E|2--3h------3--------------------------2--3h--------3p2--------|
|pret-ty ba - by,  darlin' can't you do me now?_
|--------------------------------------------------------------|
|2-----5----0--2h---3-------3-------5--p2----5----2------5-----|
|------2----0--2h---3-------3-------2--------2----2------2-----|
|------2----0--2h---0-------2-------2--------2----2------2-----|
|-------------------0-------0----------------------------------|
|--------------------------------------------------------------|


e|--------------------------------------------------------------|
B|--------------------------------------------------------------|
G|-0--2h--5----2------2-------2------------------------------2--|
D|-0--2h--5----2------2-------2------------5--------4--------2--|
A|-------------0------0-------0------------------------------0--|
E|-----------------------3---------3--5-------------------------|
|                                                          Hey,_
|-----------------------------------------3--------2-----------|
|p2--3h--5----2------5--p2---5----0--2h---3--------3--------5--|
|--------2----2------2-------2----0--2h---0--------2--------2--|
|--------2----2------2-------2----0--2h---0--------0--------2--|
|--------------------------------------------------------------|
|--------------------------------------------------------------|


e|--------------------------------------------------------------|
B|--------------------------------------------------------------|
G|-----2-----------2--0--2--5----2------2-------2---------------|
D|-----2-----------2--0--2--5----2------2-------2------------5--|
A|-----0-----------0-------------0------0-------0---------------|
E|3---------3------------------------------3---------3--5-------|
|____ ba - by,    oh,__    ba - by,     pretty ba - by,   move me
|-----------------------------------------------------------3--|
|p2---5----2------5--p2-3h-5----2------5--p2---5----0--2h---3--|
|-----2----2------2--------2----2------2-------5----0--2h---0--|
|-----2----2------2--------2----2------2-------2----0--2h---0--|
|--------------------------------------------------------------|
|--------------------------------------------------------------|


e|--------------------------------------|
B|--------------------------------------|
G|---------------2-------2-----------2--|
D|------4--------2-------2-----------2--|
A|---------------0-------0-----------0--|
E|------------------3---------3---------|
|while you do me now.___
|------2-------------------------------|
|------3--------5--p2---5----2------5--|
|------2--------2-------2----2------2--|
|------0--------2-------2----2------2--|
|--------------------------------------|
|--------------------------------------|


e|-------------------------------------------------------|
B|-------------------------------------------------------|
G|0--2--5----2------2-------2----------------------------|
D|0--2--5----2------2-------2------------5--------4------|
A|-----------0------0-------0----------------------------|
E|---------------------3---------3--5--------------------|
|                                                Did-n't
|---------------------------------------3--------2------|
|p2-3h-5----2------5--p2---5----0--2h---3--------3------|
|------2----2------2-------2----0--2h---0--------2------|
|------2----2------2-------2----0--2h---0--------0------|
|-------------------------------------------------------|
|-------------------------------------------------------|


 [Verse 6]
e|----------------------------------------------------------------------|
B|----------------------------------------------------------------------|
G|----------------------------------------------------------------------|
D|2---------------------------------------------------------------------|
A|----------------------------------------------------------------------|
E|----------------------------------------------------------------------|
|take too long_ 'fore I found out__ what people mean by down and out.__
|----------------------------------------------------------------------|
|----------------------------------------------------------------------|
|----------------------------------------------------------------------|
|2---------------------------------------------------------------------|
|0---------------------------------------------------------------------|
|----------------------------------------------------------------------|


 Guitars 1 and 2
e|-------------------------------------------------------------------------------------------|
B|-----------------------------5-------------------------------------------------------------|
G|---------------5^~--------7-----5--7hp5--------5^~-----------------------------------------|
D|---5--6--7-----------7-------------------7--7--------7----5--7--7--------------2------2----|
A|7-----------7------------------------------------------------------5--7--3--5--0------0----|
E|-------------------------------------------------------------------------------------------|


 [Verse 7]
 Spent my money, took my car, started tellin' her friends she gon-na be a star.___
e|--------------------------------------------------------------------------------------|
B|-----------------------------5--------------------------------------------------------|
G|---------------5^~--------7-----5--7hp5--------5^~------------------------------------|
D|---5--6--7-----------7-------------------7--7--------7----5--7--7--------------2------|
A|7-----------7------------------------------------------------------5--7--3--5--0------|
E|--------------------------------------------------------------------------------------|


 [Verse 8]
 I don't know,_ but I been told,_ a big legged woman_ ain't go no soul.__
e|--------------------------------------------------------------------------------------|
B|-----------------------------5--------------------------------------------------------|
G|---------------5^~--------7-----5--7hp5--------5^~------------------------------------|
D|---5--6--7-----------7-------------------7--7--------7----5--7--7--------------2------|
A|7-----------7------------------------------------------------------5--7--3--5--0------|
E|--------------------------------------------------------------------------------------|


e|---------------------------------|
B|---------------------------------|
G|---------------------------------|
D|2---------------------5^~--------|
A|0---------5--6--7-----------7----|
E|-------7-----------7-------------|


e|--------------------------|
B|--------------------------|
G|--------------------------|
D|---------------5^~--------|
A|---5--6--7-----------7----|
E|7-----------7-------------|


e|--------------------------|
B|--------------------------|
G|--------------------------|
D|---------------5^~--------|
A|---5--6--7-----------7----|
E|7-----------7-------------|


e|--------------------------------------------------------------------------|
B|------------------------------------------5^~-----------------------------|
G|------------------------------5^-------7--------5--7hp5--------5^~--------|
D|------------------5--6--7-----------7--------------------7--7--------7----|
A|---5--6--7--5--7-----------7----------------------------------------------|
E|7-------------------------------------------------------------------------|


e|--------------------------------------------|
B|--------------------------------------------|
G|----------------------------------2------2--|
D|5--7--7-------------2------2------2------2--|
A|---------5/7--3--5--0----------------3^~-0--|
E|--------------------------------------------|
                                           Oh_

 [Chorus 1]
 Guitars 3
e|--------------------------------------------------------------------------------|
B|--------------------------------------------------------------------------------|
G|4B--rp2-4--2~-------4B--rp2-4--2~~~~~~~~~~5^~--------2------4B--rp2-------------|
D|--------------------------------------------------------------------4--2--------|
A|--------------------------------------------------------------------------3^~---|
E|--------------------------------------------------------------------------------|
|__ yeah,      oh,____ yeah,         ah,__ ah,__      ah,____              oh,___
|Guitar 1 and 2
|---------------------------------------------------------------------|
|---------------------------------------------------------------------|
|2----------2------2----------2----2--2--5-------2------2----------2--|
|2----------2------2----------2----2--2--5-------2------2----------2--|
|0--------3\0------0--------3\0----0--0--3-------0------0--------3\0--|
|---------------------------------------------------------------------|


e|-----------------------------------------------------------------|
B|-----------------------------------------------------------------|
G|----4B--rp2-4--2----2----2-4B--rp2-4--2----2------5^~-------2----|
D|-----------------------------------------------------------------|
A|-----------------------------------------------------------------|
E|-----------------------------------------------------------------|
|____ yeah,__       oh____  yeah,__         ah_____ ah,___  yeah.__
|----------------------------------------------------------|
|----------------------------------------------------------|
|----2----------2------2----------2--------5--------2------|
|----2----------2------2----------2--------5--------2------|
|----0--------3\0------0--------3\0--------3--------0------|
|----------------------------------------------------------|


 [Verse 9]
  A5
e|-----------------------------------------------------------------------|
B|-----------------------------------------------------------------------|
G|2----------------------------------------------------------------------|
D|-----------------------------------------------------------------------|
A|-----------------------------------------------------------------------|
E|-----------------------------------------------------------------------|
|All I ask__ for, all I pray,__ steady loaded woman gonna come my__ way.
|-----------------------------------------------------------------------|
|-----------------------------------------------------------------------|
|7/2--------------------------------------------------------------------|
|-2---------------------------------------------------------------------|
|-0---------------------------------------------------------------------|
|-*---------------------------------------------------------------------|
Guitar 1 slides into A5, Guitar 2 sustains.


 Guitar 3
e|-------------------------------------------------------------------------------------------|
B|--------------------------7--8--5--7hp5----------------------------------------------------|
G|---4--5--6-----7B----6-------------------6--6--7B----6----4--6--6--------------------------|
D|7-----------7------------------------------------------------------5--7-----4--------------|
A|-------------------------------------------------------------------------7-----7-----------|
E|-------------------------------------------------------------------------------------------|
|Guitars 1 and 2
|-------------------------------------------------------------------------------------------|
|-----------------------------5-------------------------------------------------------------|
|---------------5^~--------7-----5--7hp5--------5^~-----------------------------------------|
|---5--6--7-----------7-------------------7--7--------7----5--7--7--------------2------2----|
|7-----------7------------------------------------------------------5--7-\3--5--0------0----|
|-------------------------------------------------------------------------------------------|


 [Verse 10]
 Need a woman, gonna hold my hand_ will tell me no__ lies,_ make me a happy man._____
e|--------------------------------------------------------------------------------------|
B|--------------------------7--8--5--7hp5-----------------------------------------------|
G|---4--5--6-----7B----6-------------------6--6--7B----6----4--6--6---------------------|
D|7-----------7------------------------------------------------------5--7-----4---------|
A|-------------------------------------------------------------------------7-----7------|
E|--------------------------------------------------------------------------------------|
|
e|--------------------------------------------------------------------------------------|
B|-----------------------------5--------------------------------------------------------|
G|---------------5^~--------7-----5--7hp5--------5^~------------------------------------|
D|---5--6--7-----------7-------------------7--7--------7----5--7--7--------------2------|
A|7-----------7------------------------------------------------------5--7-\3--5--0------|
E|--------------------------------------------------------------------------------------|

 [Bridge]
 Gutiars 1, 2, and 3
e|---------------------------------------------|
B|---------------------------------------------|
G|---------------------------------------------|
D|2--------------------------------------------|
A|0--------------------------------------------|
E|---------------------------------------------|
Ah  ah  ah  ah  ah  ah  ah  ah  ah  ah  ah  ah


 Guitar 3
e|-------------------------------------|
B|-------------------------------------|
G|-------------------------------------|
D|-------------------------------------|
A|----------------0-/4--0--------0--3/-|
E|----------0-/2-----------2--0--------|
|ah.__________________________________
|Guitar 1
|-------------------------------------|
|-------------------------------------|
|----------------------------------2--|
|----------------------------------2--|
|----------------------------------0--|
|-------------------------------------|
|Guitar 2
|-------------------------------------|
|----------------------------------5--|
|----------------------------------2--|
|----------------------------------2--|
|-------------------------------------|
|-------------------------------------|


 Chorus (Guitar solo):
 Guitar 3
e|-----------------------5-------------------------------5-------------------------------|
B|---------------------------------------------------------------------------------------|
G|----------2-----2--4B---------------------2-----2--4B---------------------2-----2--4B--|
D|----2--4-----4----------------------2--4-----4----------------------2--4-----4---------|
A|/4------------------------0--3--/4------------------------0--3--/4---------------------|
E|---------------------------------------------------------------------------------------|
|Rhythm figure 1, Guitar 1                                        End Gtr. 1 Fig. 1
|--------------------------------------------------------------------------------------|
|-----------------------------5----2---------------------------------------------------|
|-------2-----------2---------5----2------2---------2----0--2-----------------------2--|
|-------2-----------2---------5----2------2---------2----0--2----5--------4----0----2--|
|-------0-----------0--------(3)---0------0---------0-------0-----------------------0--|
|2-3h--------3p2-------4--5h-----------------2--3h-------3-----------------------------|
|Rhythm figure 1, Guitar 2                                        End Gtr. 2 Fig. 1
|----------------------------------------------------------------3--------2------------|
|p2-----5----2------5--p2--3h--5---2------5--p2-----5----0--2h---3--------3---------5--|
|-------2----2------2----------2---2------2---------2----0--2h---0--------2---------2--|
|-------2----2------2----------2---2------2---------2----0--2h---0--------0---------2--|
|--------------------------------------------------------------------------------------|
|--------------------------------------------------------------------------------------|


 Guitar 3
e|5----------------------------------|
B|-------3---------------------------|
G|---5B-----5--4--2-----2-4h---------|
D|-------------------4---------------|
A|-----------------------------0--3--|
E|-----------------------------------|


 Guitar 3: Continue Rhythm Figure 1, Guitars 1 and 2, 12 times till fade.
e|-----------------------5-------------------------------5--------|
B|----------------------------------------------------------------|
G|----------2-----2--4B---------------------2-----2--4B-----------|
D|----2--4-----4----------------------2--4-----4------------------|
A|/4------------------------0--3--/4------------------------0--3--|
E|----------------------------------------------------------------|


e|-----------------------5----------------------------------|
B|------------------------------3-----------------------/5--|
G|----------2-----2--4B-----5B-----5--4--2-----2--4h-2-/----|
D|----2--4-----4----------------------------4---------------|
A|/4--------------------------------------------------------|
E|----------------------------------------------------------|
                          *La-da ah           e     ah
*The volume for the lyrics in the track is very low.


e|5----5--7B------7--5--5--5--5--------8--10--10--10B----10B--r--8--10/12--10--|
B|5---------------------5--5--5--/10-~~----------------------------------------|
G|-----------------------------------------------------------------------------|
D|-----------------------------------------------------------------------------|
A|-----------------------------------------------------------------------------|
E|-----------------------------------------------------------------------------|
yes I will._______                                               And yes   I


e|8--10--8^~---------------8------------10B--10--8--10B------------------|
B|--------------10-10~~~~~~---------10----------------------------15--B--|
G|-------------------------------------------------------------0---------|
D|-----------------------------------------------------------------------|
A|-----------------------------------------------------------------------|
E|-----------------------------------------------------------------------|
rea - ly,__ real-ly do     ba - by,            ba - by,


 Hold bend                                         8va_______________________
e|15------------------------------------------------------17-----------------|
B|------15r--13--15B----15--13----15B--15--------------------------------17--|
G|-------------------------------------------------19B----------19B----------|
D|---------------------------------------------------------------------------|
A|---------------------------------------------------------------------------|
E|---------------------------------------------------------------------------|
ba - by.            I can real - ly do you,__  huh?_____

 (8va)_________________________________________________________________________
e|17-------------17--20-------------------------------17-----------------------|
B|----17--20B--------------20B-----------17---------------20------17--20----B--|
G|----------------------------------x----------19B--------------------------*--|
D|-----------------------------------------------------------------------------|
A|-----------------------------------------------------------------------------|
E|-----------------------------------------------------------------------------|
               Ooh,                  wew,__           you do it ba - by.
*Gruadually bend


 (8va)_________________________________________________________________
e|p17---------------------------------------20-------------------------|
B|-----20--17-----------20--------\----20B--------20B--r--17--19B------|
G|---------------17B-----------------------------------------------19--|
D|---------------------------------------------------------------------|
A|---------------------------------------------------------------------|
E|---------------------------------------------------------------------|
Push it,  ba - by,  push it,  ba - by,  push it,  ba - by,


 (8va)________________________
e|-------------------------------------5-------------5-------------5-------------5------|
B|---------------------5--5--5------5-----8-5-----5-----8-5-----5-----8-5-----5-----8-5-|
G|17------19--17----\-----------7B------------7B------------7B------------7B------------|
D|----19--------------------------------------------------------------------------------|
A|--------------------------------------------------------------------------------------|
E|--------------------------------------------------------------------------------------|
|push it,  ba - by,   push it,  ba - by,   push it,   babe
|                             Begin Guitar 4 figure 2
|-----------------------------|--------------------------------------------|
|--------------------------2--|p0----2----0------2--p0--2h--5----2------2--|
|--------------------------2--|p0----2----0------2--p0--2h--2----2------2--|
|--------------------------2--|p0----2----0------2--p0--2h--2----2------2--|
|-----------------------------|--------------------------------------------|
|-----------------------------|--------------------------------------------|


e|-------5-------------5-----------------------------------|
B|----5-----8-5-----5-----8-5-8-5--------------------------|
G|7B------------7B----------------7-5-7--5-----7-5^~~~~~~~-|
D|------------------------------------------7--------------|
A|---------------------------------------------------------|
E|---------------------------------------------------------|
|              babe.
|                    End Guitar 4 figure 2
|-----------------------------------------|
|p0----2----0--2h----0-----------------2--|
|p0----2----0--2h----0--------2--------2--|
|p0----2----0--2h----0--------4--------2--|
|-----------------------------5-----------|
|-----------------------------------------|


e|-----------------------------------------------------------------------|
B|----------------------------------------------------------------8------|
G|-------------5^~------5--7B-----------7--7--7--7B----7--5----5-----7B--|
D|7--5--7~~~~~~------7---------------7-----------------------7-----------|
A|-----------------------------------------------------------------------|
E|-----------------------------------------------------------------------|
ooh,_______________________________________________
Continue figure 1, Guitars 1 and 2 and continue figure 2,
Guitar 4, 6 times till fade


e|----------------------------------------------------------------------------------------|
B|----------------------------------------------------------------------------------------|
G|7--5-----5-7h---------------5^~------------5^~------------/7-------------5^~------------|
D|------7------------5--6--7--------5--6--7--------5--6--7--------5--6--7--------5--6--7--|
A|----------------------------------------------------------------------------------------|
E|----------------------------------------------------------------------------------------|
babe.


e|----------------------------------------------------------------------------5--------|
B|-------------------------------------------------------------------------------------|
G|/7-------------5^~---------------------------------------------2-----2--4B-----------|
D|------5--6--7--------5--6--7-----------------------------2--4-----4------------------|
A|------0--------------5--6--7--5--3--4---------------3/4--------------------------3/--|
E|---------------------------------------3^--r-----------------------------------------|
                                                       ooh,___________________________


e|-----------------------5----------------------------5-------------------------------|
B|------------------------------------------------------------------------------------|
G|----------2-----2--4B------------------2-----2--4B----------------------------------|
D|----2--4-----4-------------------2--4-----4-----------------------------------------|
A|/4--------------------------3/4------------------------4--7--3--5--3--4---------3/--|
E|-------------------------------------------------------------------------3^~-r------|
___                            aah_________________              ooh.


e|--------------------------5-----------8--9--10B----10----10B----10----10B--10--|
B|-------------------/5--5-----/10-----------------------------------------------|
G|----------2-----2--/6----------------------------------------------------------|
D|----2--4-----4-----------------------------------------------------------------|
A|/4-----------------------------------------------------------------------------|
E|-------------------------------------------------------------------------------|
                              ooh.___


e|8--10--10B--8------------------8------------------------------------------|
B|-------------------10--10~~~~~~-------10--13--b--r--10~~~~~~x--10--13b----|
G|--------------------------------------------------------------------------|
D|--------------------------------------------------------------------------|
A|--------------------------------------------------------------------------|
E|--------------------------------------------------------------------------|
                                                             (Choke)


e|-------------------------------------------------------------------------------15-----------|
B|r--10~~~~~~10--10--15--15B----15--13^~-----13-15h----13------13-15h~~----13------------15B--|
G|---------------------------------------14----------------14---------------------------------|
D|--------------------------------------------------------------------------------------------|
A|--------------------------------------------------------------------------------------------|
E|--------------------------------------------------------------------------------------------|
               I'd really like to do it now.


                                                           Fade out
e|---------------------15----15B--r----------------------------15B----------------------|
B|rp13-------15--13----------------15p13-------15--13------13---------------------------|
G|------14h-------------------------------14h----------14-------------------------------|
D|--------------------------------------------------------------------------------------|
A|--------------------------------------------------------------------------------------|
E|--------------------------------------------------------------------------------------|
                                        I'd really like to do it now.



************************************

| \    Slide down
| ~    Vibrato
| /    Slide up
| *    Natural harmonic
| (n)  Ghost note
| h    Hammer-on
| p    Pull-off
| r    Release
| x    Dead note
| b    Bend

************************************
Suggest correction
comments
print report bad tab
3 comments total.
-1 reply
bassdrum 161 Jun 01, 2005 12:00 AM

Very nice job dude!!!

0 reply
Brian Gelvin 649 Jun 01, 2005 12:00 AM

You stole this from me out of my Album.
You copied and pasted it.
Why don't you just do your own.

This tab is copied word for word from me.

For that * 1 star.

-1 reply
jdpierog 10 Jul 01, 2006 01:28 PM

godly =)

guest
You may want to rate the tab now too:
select rating
Wanna post a correction for this tab? Suggest correction