Oops, an error
Loading. Please wait.

Black Mountain Side Tab

version 3
version 3

Whole song

34,175 views 21 this week
17 commentsread comments
1 2 3 4 5
x 25
add to favorites
×
Save as Personal and add changes to this tab that will be seen only by you. Learn more ›
×
You can save this tab as Personal to edit and correct it or add notes. All changes will be seen only by you. Learn more »
save as personal
new!
launch autoscroll
font size
0
reset
how to read this tab
guitar tuner
Autoscroll
slow
fast
+/-
esc
set tempo
stop
Difficulty
advanced
hite-Summer Black Mountainside.
Led Zeppelin Remasters Box-set
Page, Jimmy

h: hammer-on
p: pull-off
b: bend
br:bend and release
~: vibrato
s: slide
*: harmonic
?.: grace note e.g. 5.7


Tuning: Low to High D A D G A d

    *    *    *
d|-12----7----5---------------------------------------------------0------------|
A|-12----7----5----------------*--------0-------------------------0------------|
G|-12----7----5----------0----12--------0--2p0---0h2h4h5--4p2p0h2-2--0---0h2p0-|
D|-12----7----5----0h2h4-----------------------4------------------0----4-------|
A|----------------------------------------------------------------0------------|
D|--------------------------------3b------------------------------0------------|

d|-------------------0----------------------------------------------4s5-4-5s8-7-|
A|-------------------0--------------------------2-------------------------------|
G|---0h2h4h5-4p2p0h2-2--2p0-----------------------------------------------------|
D|-4-----------------0------2p0--2--2-2s4-4-5-----------0h2h4p2h4p2-4s5-4-5s8-7-|
A|-------------------0-----------3----3s5---4-3-2-----0-------------------------|
D|-------------------0------------------------------0---------------------------|

d|-12--10----------------------------------------------------------------------|
A|-------------0------0--0-------------------------------------------0--2p0h2--|
G|-----------2-----2--4--5--5----5h7p5h7--5.7-5.7--7-5.7--5.7-5b7-5------------|
D|-12--10--------0------------0------------------------------------------------|
A|-----------------------------------------------------------------------------|
D|-----------------------------------------------------------------------------|

d|-----------------------------0-----------------------------------4p0h4-4p0h4-|
A|-2p0-------------3-----------0-----------------------------------0-----------|
G|-----0-----0h2h4---4p2p0h2---2---------0h2p0--0--2h4h5-4p2p0h2---2-----------|
D|--------4--------------------0---0h2h4---------------------------0-----------|
A|-----------------------------0-----------------------------------0-----------|
D|-----------------------------0-----------------------------------0-----------|

d|-4p0h4-----------------------------------------------------------------------|
A|-0---------0-----0---0-------------------------------------------------------|
G|---------0-------4---5--5--------5.7--5.7--5.7---7p5p4h5--7p5p4h5h7b9--------|
D|-------2-----2------------0-5b7----------------------------------------------|
A|-----------------------------------------------------------------------------|
D|-----------------------------------------------------------------------------|

d|------------------------------------------0-------0----------------0---------|
A|----------------------------------------------------------0--------0---------|
G|-7p5p4h5h7p5 4h5p4p2--4p2p0h2h4-----------0-2p0---0h2h4h5-4p2p0-2--2---------|
D|------------------------------------------------4------------------0---------|
A|-------------------------------------------------------------------0---------|
D|---------------------------------3h5p3h5---------------------------0---------|
                                                 *
d|--------------------------------0-------------12-------0--------0---------------|
A|--------------------------------0-------------12--------------0-----------------|
G|-------0h2h4---0h2h4h5-4p2p0h2--2----------0-----------0h2p0----0h2h4h5-4p2p0h2-|
D|-0h2h4-------4------------------0----0h2h4--------------------4-----------------|
A|--------------------------------0-----------------------------------------------|
D|--------------------------------0-----------------3s5---------------------------|

d|-0---------------------------------------------------0--|
A|-0------------------------------2---0h2-0------------0--|
G|-2---2p0------------------0--4------------0h2p0------2--|
D|-0-------2p0---2-------4--2--5------4-----2----------4--|
A|-0-----------3---3s5-5-------------------------------0--|
D|-0-----------------------------------------------0------|
  ###
d|-|------0--------0---------0------0-------0------0----------------------------|
A|-|------------0---------0-------------0-----0---------------------------------|
G|-|------0h2p0----0--2p0----0------0h2-----2------2p0--------------------------|
D|-|0h2h4-------4---------4-----4---------0-----0------2p0----2-------4---------|
A|-|--------------------------------------------------------3---3s5-5---3--2--0-|
D|-|----------------------------------------------------------------------------|

d|------------0-------0--0-----------0-2p0---0-2----------0---------0----------|
A|--------------3p0---------0--------------------------------0---------0-------|
G|---2----2-4-5-------5--7------5-2--4-------4-----4p0----0--2p0----0--2p0-----|
D|-4----------------0---------0------------0-----0-----4---------4---------4---|
A|-----------------------------------------------------------------------------|
D|-----0-----------------------------------------------------------------------|

d|-0----0-----0------0---0-----0--------0-------------0-2p0---0-2----------0-----|
A|----------0------0-------------3p0--------0--------------------------------0---|
G|-0----0h2------2---------2-4-5--------5-7------5-2--4-------4-----4p0----0-2p0-|
D|---4---------0--------0------------0--------0-------------0-----0-----4--------|
A|-------------------------------------------------------------------------------|
D|-------------------------------------------------------------------------------|
                                                 *
d|----0-------0----0-----0---0------------------12-----------------------0------|
A|-------0-------------0-----0------------------12------------------0----0---0--|
G|----0--2p0--0----0h2--------------------------12-----2p0---0-------------2----|
D|--4-----------4----------0------0---0h2h4-----12---------4----5h7-----------0-|
A|------------------------------5---5-------0--------------------------0--------|
D|------------------------------------------------3b----------------------------|

d|----------------------------------------------0---0----------0---0-----------|
A|----------------------------------------------0---0----------0---0-----------|
G|-2p0----------------------------2--------------------------------------------|
D|-----2p0---2-----4------------4---0-----------2s4-2s4--------2s4-2s4---------|
A|---------3---3s5---5--3--2-0---------2p0--------------2-0------------2-0-----|
D|------------------------------------------0-0-------------0-0------------0-0-|
                            # # # Repeat
d|-0---0----------0---0----------|---0----------------------------0--------------|
A|-0---0----------0---0----------|---0----0-0--0---0---0--------------------0--0-|
G|-------------------------------|------------------------------2----------------|
D|-2s4-2s4--------2s4-2s4--0-2-4-|---2s4--2-0--0---2-4-2--0-2h4------4-4----0--2-|
A|---------2-0-------------------|-----------------------------------------------|
D|-------------0-0---------------|-0--------------------------------------0------|

d|------------------------------0----------------------------0------------------|
A|-0---0-0---0-0---------------------0-0--0---0---0-------------------0-0-0---0-|
G|-------------------0-------------------------------------2--------------------|
D|-4b--4-2---2-2h4-2-0-0--------2s4--2-0--0---2-4-2--0-2h4------4-4---0-2-4b--4-|
A|------------------------2-0---------------------------------------------------|
D|-----------------------------0-------------------------------------0----------|

d|-----------------------7-------8--7-------8--10--------8--7--8-------10--8----|
A|-0--0-0----------------------0---------0------------0-------------0-----------|
G|------------------------------------------------------------------------------|
D|-2--2-2-4p2--0-0-2-0---7--7----8--7--7----8--10--10----8--7--8--8----10--8--8-|
A|------------------------------------------------------------------------------|
D|------------------------------------------------------------------------------|

d|----7--8-------10--12--------12--14--------12--10--------12--10--------8--10-|
A|-0----------0-------------0-------------0---------------------------0--------|
G|------------------------------------------------------0----------------------|
D|----7--8--8----10--12--12----12--14--14----12--10--10----12--10--10----8--10-|
A|-----------------------------------------------------------------------------|
D|-----------------------------------------------------------------------------|

d|--------8--6-------7--6------0--2--4--7------7--6------7--2--4--0------------|
A|-----8-----------0---------0---------------0---------0-----------------------|
G|-----------------------------------------------------------------------------|
D|-10-----8--6--7-------6--7------2--4--7--7------6--7------2--4--0--2--0------|
A|-------------------------------------------------------------------------3---|
D|-----------------------------------------------------------------------------|

d|----0--0--------------0--0-------------0--0------------4--0-----------0--0---|
A|-0-----------------0----------------0---------------0--------------0---------|
G|-----------------------------------------------------------------------------|
D|----0--0--2--0--------0--0--2--0-------0--0--2-0-5-----4--0--2p0------0--0---|
A|----------------3-----------------3------------------------------3-----------|
D|-----------------------------------------------------------------------------|

d|----------0--0------------0--0-------------0--0------------0--0-------8-----7-|
A|-------0---------------0----------------0---------------0----------------0----|
G|------------------------------------------------------------------------------|
D|-2p0------0--0--2p0-------0--0---2-0-------0--0--2p0-------0--0--2p0--------7-|
A|-----3---------------3---------------3---------------3----------------8-------|
D|------------------------------------------------------------------------------|

d|--------------7------8------7--------------7-------8---7-----9------10-----9-|
A|--------0--------0------0----------0---------0-----------0-----0-------0-----|
G|-----------------------------------------------------------------------------|
D|-----------7-------8------7-----------7--7------8----7-----9-----10------9---|
A|-----------------------------------------------------------------------------|
D|-----------------------------------------------------------------------------|

d|------7------4-----5-------1------1------------------------------------------|
A|-0------0------0------0------0-------0---0--3--5---3b---0--3--5--------------|
G|-----------------------------------------------------------------------------|
D|----7-----4------5-------1------1--------0--3--5--------0--3--5--3-----------|
A|---------------------------------------------------3----------------3--3--5--|
D|-----------------------------------------------------------------------------|

d|------------------------------------------------------------------------------|
A|-5s10-----9h10p9------7--12--11----11----11---------7--9--12---11---11--------|
G|------------------------------------------------------------------------------|
D|------------------------------------------------------------------------------|
A|-5s10--9----------5---7--12--11-11----11-------11---7--9--12---11-11---11--11-|
D|---------------------------------------------0----------------------------0---|

d|------------0-----0--------------------0---------------------0----------------|
A|-11---------0---------------2---------------------2-------------------2-------|
G|------------x-----0--2p0---------------0---------------------0----------------|
D|------------0------------4-----3--0-------2p0--------3--0------2p0-------3--0-|
A|----11--11-11---------------2-----------------4---2----------------4--2-------|
D|------------0---0--------------3-----0---------------3------0------------3----|

d|---0--------------0---------0-----2--4-------4---------4----5--7-5-4-----0---|
A|------------2------------0------------------------4s5--------------0---------|
G|---0---------------------------0-----0-------0--------------0------------0---|
D|-----2p0-------3---------0--0-----4---------------0-0------------------------|
A|---------4--2----------------------------------------------------------------|
D|-0-------------3------0-----------------0-0-----0---------0-----------0------|

d|-------------------0----------------------------------------0-----------------|
A|--------------0------------3---3---3---3--------2----2----------------2-------|
G|-2p0-----------------------0---0---0---0--------0----0------0--2p0------------|
D|-----4-2-0---------------------------------------------------------4-----3--0-|
A|----------------------2s3----3---3---3----3--2-----2---2--------------2-------|
D|------------0---------------------------------------------0--------------3----|

d|---0--------------0----0-----------------------------------------------------|
A|------------2--------------------------------0-----------------0--0----------|
G|---0--2p0--------------0--0h2-----4h5p4h5p4-----4--7-----7--7--x--x--2--4----|
D|----------4----3--------------3--------------------7-----7--7--0--4-----5----|
A|------------2--------------------------------------------------x--x----------|
D|-0-------------3-----0------------5----------5--5--0--0--0-----0--0--0--0--0-|

d|------------------------------0-----0--------0---------0-------------0--------|
A|----------------2-------0-----------------------------------------------------|
G|-3--4--7------------0------------------------0--2p0----0--2p0--------0--2p0---|
D|-4--5--7--------------0----3--------0--2--4--0-------4--------2p0-----------4-|
A|----------------2-------------------------------------------------3-----------|
D|-0--0--0--0--0-------------3------0-------------------------------------------|

d|--------------0----------------0--------0--2--4-------4---4------4-----5--7p5-|
A|--2---------------------2------------0------------------------5---------------|
G|---------0----0--2p0----------------------------------------------------------|
D|------3--------------4-----3---------0--0--4--0-------0-------0--------0------|
A|--2---------------------2-----------------------------------------------------|
D|------3-----0--------------3-------0-------------0--0-----0---------0---------|

d|-4----0-----------------------0----------------------------------------------|
A|-0------------------------0----------3-----3----3------3-------2-----2-------|
G|------0--2p0-------------------------0-----0----0------0-------0-----0-------|
D|--------------4--2--0-------------------3-----3-----3------------------------|
A|---------------------------------2s3-----------------------3--2---2-----2----|
D|----0------------------0---------------------------------------------------0-|

d|--0----------------------0----------------------0-----------------0------0---|
A|-------------2----------------------2----------------------2-----------------|
G|--0---2p0----------------0--2p0-----------------0--2p0-------------------0---|
D|-----------4-----3--0------------4-----3---0------------4------3-------------|
A|-------------2----------------------2----------------------2-----------------|
D|-----------------3-----0---------------3------0----------------3-----0-------|

d|-----------------------------------------------------------------------------|
A|--------------------0---------------------------------------------------2----|
G|-2p0----4h5p4h5p4------4---7-------7--7---------2--4-----2--4--7-----------0-|
D|-----3---------------------7-------7--7---0--4-----5-----4--5--7-------------|
A|------------------------------------------------------------------------2----|
D|--------------------5--5---0----0--0------0--0--0--0--0--0--0--0--0--0-------|

d|-----------0----0---------0----------0--------------------0------------------|
A|-----0---------------------------------------------------------------2-------|
G|----------------0--2--4---0--2p0-----0--0--2p0------------0--2p0----------0--|
D|--0-----3-----------------0-------4-------------2p0---------------4-----3----|
A|--2--2-----------------------------------------------3---------------2-------|
D|--------3-----0-----------------------------------------0---------------3----|

d|---0------------------------0----------------------0-------------------------|
A|--------------2------------------------2-------------------2-----------------|
G|---0--2p0-------------------0--2p0-----------0-----0--2p0--------0-----------|
D|-----------4-----3---0--------------4-----3-------------------3--------------|
A|--------------2------------------------2-------------------2-----------------|
D|--0--------------3-------0----------------3------0------------3--------------|

d|---0------------------------0----------------------0-----------------0-------|
A|--------------2------------------------2-------------------2---------0-------|
G|---0--2p0-------------------0--2p0-----------0-----0--2p0--------0---2-------|
D|-----------4-----3---0--------------4-----3-------------------3------0-------|
A|--------------2------------------------2-------------------2---------0-------|
D|--0--------------3-------0----------------3------0------------3------0-------|

d|-0--------------------------------------------------------------------------------|
A|-0--------------------------------------------------------------------------------|
G|-2------------------------------0h2h4p2-0-2-4--5----4-----5-----7-----9p7h9p7h9p7-|
D|-0------------------2p0---0h2h4------------------0-----0-----0-----0--------------|
A|-0------------0h2h4-----4---------------------------------------------------------|
D|-0------0h2h4---------------------------------------------------------------------|

d|-----------------------------------------------------------------------------|
A|-----------------------------------------------------------------------------|
G|-6-----7-----9p7h9p7h9p7--6----7---------------------0--5--4--3p0------------|
D|----0-----0------------------0-----------------0--2----------------2p0-------|
A|-------------------------------------0---2--4---------------------------3h5--|
D|----------------------------------5------------------------------------------|

d|--0---------0--------0-------------------------------0---------0--------0----|
A|---------0---------------------0---------0------------------0----------------|
G|--0h2p0-----0--2--4--5--0h2p0--------0---------------0h2p0-----0--2--4--5----|
D|---------4------------------------4---------4--2--0---------4----------------|
A|-----------------------------------------------------------------------------|
D|-----------------------------------------------------------------------------|

d|-------------------------------------0---------0--------0--------------------|
A|--------------------------------------------0--------------------0-------0---|
G|-------------------------------------0h2p0-----0--2--4--5--0h2p0------0------|
D|-----------0-----------0--------------------4-----------------------4------4-|
A|-3s5--5--5---5--3s5--5---5--3s5----------------------------------------------|
D|---------------------------------0-------------------------------------------|

d|--------0---------0--------0---------------------------------0--1--4-------4-|
A|---------------0--------------------------------------------------------0----|
G|--------0h2p0-----0--2--4--5-------------------------------------------------|
D|-2--0----------4------------------------0--------------0-----0--1--4--4----4-|
A|------------------------------3s5--5--5---5--3s5--5--5---5-------------------|
D|-----------------------------------------------------------------------------|

d|-4-----1------0--------0--0------1------4---------4--4-----1-----0--------5--|
A|--------------------0-------------------------0-------------------------0----|
G|---------1-------------------------------------------------------------------|
D|-4---4--------0---0----0--0---0-----1---4---4-----4--4--4-----1--0---5-------|
A|-----------------------------------------------------------------------------|
D|-----------------------------------------------------------------------------|

d|-4-------8---7----------8--10--------8--7---------8--7--8--------10--8-------|
A|-------0--------------------------0-----------0---------------0-----------0--|
G|--------------------0--------------------------------------------------------|
D|-4---8-------7---7------8--10--10----8--7--7------8--7--8--8-----10--8--8----|
A|-----------------------------------------------------------------------------|
D|-----------------------------------------------------------------------------|

d|--7--8--------10--12--------12--14--------15--14--------12--14--------12--10-|
A|-----------0-------------0-------------0-------------0-------------0---------|
G|-----------------------------------------------------------------------------|
D|--7--8--8-----10--12--12----12--14--14----15--14--14----12--14--14----12--10-|
A|-----------------------------------------------------------------------------|
D|-----------------------------------------------------------------------------|

d|--------12--10--------0---9--------8--10--------8--9p8--8--9p8-8--8--9-------|
A|-----0-------------0------------0------------0-------0---------0--------0----|
G|-----------------------------------------------------------------------------|
D|-10-----12--10--10----0---9--9-----8--10--10----8--9-8--8------8--8--9-------|
A|-----------------------------------------------------------------------------|
D|-----------------------------------------------------------------------------|


d|--8p7--7--8p7--7--8------6-------7--6-------7--2--4--6-------7--6------7--2--|
A|----0-------0--------0---------0----------0----------------0---------0-------|
G|-----------------------------------------------------------------------------|
D|--8-8--7--8-7--7--8------6---7------6---7------2--4--6---7------6--7------2--|
A|-----------------------------------------------------------------------------|
D|-----------------------------------------------------------------------------|

d|-4--6------7--6------7--2--4---0------------0--0------------0--0-----------0-|
A|---------0---------0---------------------0---------------0--------------0----|
G|-----------------------------------------------------------------------------|
D|-4--6--7------6--7------2--4---0h2p0--------0--0h2p0--------0--0h2p0-------0-|
A|--------------------------------------3---------------3---------------3------|
D|-----------------------------------------------------------------------------|

d|-0------------4--0------------0--0-----------0--0-----------0--0-----------4-|
A|-----------0---------------0--------------0--------------0--------------0----|
G|-----------------------------------------------------------------------------|
D|-0h2p0--5-----4--0h2p0--------0--0h2p0-------0--0h2p0-------0--0h2p0--5----4-|
A|------------------------3---------------3-------------3----------------------|
D|-----------------------------------------------------------------------------|

d|-0-----------0--0-----------0--0-----------0--0------8---7--------7--------7-|
A|----------0--------------0--------------0--------------0----8--------8-------|
G|---------------------------------------------------------------9--------9----|
D|-0h2p0-------0--0h2p0-------0--0h2p0-------0--0h2p0--8---7-------------------|
A|--------3--------------3--------------3--------------------------------------|
D|-----------------------------------------------------------------------------|

d|-------6--------6--------6-----5--------5--------5-------4---------4---------|
A|-8--------8--------8-----8--------6--------6-------------5--5---------5------|
G|----9--------0-----9--0-----0--------0--------0------0-------------------6---|
D|----------------------------------------------------------------0------------|
A|-----------------------------------------------------------------------------|
D|-----------------------------------------------------------------------------|

d|-4------7--------9--------7-----6--------9--9-----6p5---5-------7----5----5--|
A|-5------8--8--------8-----------7---7----------------------5-----------5--4--|
G|--------------9--------9--------------------------------------------------7--|
D|----5------------------0-----0---------0-------0--0-0---------0---0-------0--|
A|--------------------------------------------------------------------------0--|
D|-----------------------------------------------------------------------------|

d|--------0----0--------------0----0--------------0----0--------------0----0-----|
A|--------0----0--------------0----0--------------0----0--------------0----0-----|
G|-------------------------------------------------------------------------------|
D|------2s4--2s4------------2s4--2s4------------2s4--2s4------------2s4--2s4-----|
A|----------------2-0-----------------2-0-----------------2-0----------------2-0-|
D|-0--0----------------0--0----------------0--0----------------0--0--------------|

d|----------0----0---------------0----0---------------0----0---------------0---|
A|----------0----0---------------0----0---------------0----0---------------0---|
G|-----------------------------------------------------------------------------|
D|--------2s4--2s4-------------2s4--2s4-------------2s4--2s4-------------2s4---|
A|-----------------2-0-------------------2-0------------------2-0--------------|
D|--0--0----------------0--0------------------0--0-----------------0--0--------|

d|---0----------0---------0----------0------0-----------0---------0------------|
A|---0-----------------0----------0---------------0---------0------------------|
G|--------------0h2p0-----0--2-0-----0------0--2--------2---------2p0----------|
D|-2s4--0-2-4----------4----------4-----4------------0---------0-------2p0-----|
A|-----------------------------------------------------------------------------|
D|-----------------------------------------------------------------------------|

d|---------------------------------------------0-----------0--0----------------|
A|------------------------------------------------3p0------------0-------------|
G|---------------------------------2-----2--4--5-----------5--7--------5--2----|
D|----2---------4--------------2s4---------------------0------------0----------|
A|-3----3--3s5-----5--3--2--0--------------------------------------------------|
D|------------------------------------0----------------------------------------|

d|-0--2-0-----0--2--------------0----------0----------0------0-------0---------0-|
A|---------------------------------0----------0-------------------0-----------0--|
G|-4----------4--------4p0------0--2p0-----0--2p0-----0------0h2------------0----|
D|---------0--------0-------4-----------4----------4-----4----------------2------|
A|----------------------------------------------------------------------0--------|
D|-------------------------------------------------------------------------------|

d|-----0--------0---------0-------------------0--2--0-----0--2------------0-----|
A|----------------3p0------------0------------------------------------------0---|
G|-------2--4---5---------5--5s7-------5--2---4-----------4--------4p0----0-2p0-|
D|--0------------------0------------0------------------0---------0-----4--------|
A|------------------------------------------------------------------------------|
D|------------------------------------------------------------------------------|
                                                               *
d|----0-----------0-----0-----0-----0-----------------0-------12----------------|
A|-------0------------------0-------0-------------------------12----------------|
G|----0--2p0------0-----0h2-----------------------------------12-------2p0----0-|
D|-4----------4------4-----------0--------0----0h2h4----------12------------4---|
A|--------------------------------------5---5-------------0---------------------|
D|-----------------------------------------------------------------3b-----------|

d|------0-----0----------------------------------------------------------------|
A|------------0-----0------------------------------------------------0h2p0-----|
G|-5h7------------2-------2p0-----------------------------4h5p4h5p4------------|
D|---------0-----------0------2p0-----2---------4-----2---5----------0---------|
A|---------------------------------3----3--3s5----5----------------------------|
D|-----------------------------------------------------------------------------|

d|---------------------------------0----------0--------------------0-----------|
A|-------------------7b8------------------0------------------------0-----------|
G|----------0---12-----------------0h2p0------0h2h4h5----4p2p0--2--2--2p0------|
D|--0h2h4---------------------------------4------------------------0-------2p0-|
A|-----------------------------------------------------------------0-----------|
D|--------------------------3b-------------------------------------0-----------|

d|----------------------------------------------------5---4s7--7s8--7s10-10s12-|
A|-------------------------2---------------------------------------------------|
G|-----------------------------------------------------------------------------|
D|-2----2---2s4--4--4--------------------0---2h4p2h4--5---4s7--7s8--7s10-10s12-|
A|-3--------3s5-----5--3---2--------0------------------------------------------|
D|-----------------------------0-----------------------------------------------|

d|-10--------------------------------------------------------------------------|
A|----------0-----------0-----0------------------------------------------------|
G|--------2-------2-----4-----5----5-----5-7--5-7-5.7-5.7--5.7--5.7---7p5p4----|
D|-10----------0----------------------0----------------------------------------|
A|-----------------------------------------------------------------------------|
D|-----------------------------------------------------------------------------|

d|-----------------------------------------------------------------------0-----|
A|--5--7p5p4h5-h7p5p4h5-7b8--------------------------4p2p0h2h4-----------------|
G|-----------------------------7p5p4h5h7p5p4h5p4p2-----------------------0h2p0-|
D|-----------------------------------------------------------------------------|
A|-----------------------------------------------------------------------------|
D|--------------------------------------------------------------3-5-3-5--------|

d|----0-----------------0------------------------------------------------------|
A|-------------0--------0------------------------------------------------------|
G|----0h2h4h5--4p2p0h2--2---------0h2p0----0h2h4h5--4p2p0----------------------|
D|-4--------------------0---0h2h4--------4----------------4p2p0----------------|
A|----------------------0----------------------------------------4p2p0---------|
D|---------------------------------------------------------------------5p4p2p0-|

d|---------------------------------------------0----------0---------0----------|
A|----------------------------7b8--7------------------0------------------------|
G|---------------------0--12------------------------------0h2h4-5---4h5p4p0--4-|
D|-----7--5--7--0h2h4--------------------------0h2p0--4------------------------|
A|-----------------------------------------------------------------------------|
D|--5----------------------------------3b--------------------------------------|

d|-------------------0---------------------------------------------------0--0--0-|
A|-------------------0---------------------------------2---0h2p0---------0--0--0-|
G|--5h7p6h7p6-7p6h7--7--2p0----------------------0--4-------------0h2p0--2--2--2-|
D|------------0------0-------2p0-----2------4----2--5------4------2------0--0--0-|
A|-------------------0------------3----3s5----5--------------------------0--0--0-|
D|-------------------0---------------------------------------------------0--0--0-|
Suggest correction
comments
print report bad tab
17 comments total. Showing first comments.
0 reply
Maitinin 19,543 Dec 13, 2005 04:19 AM

awesome

0 reply
Zoso12 100 Mar 22, 2006 07:11 PM

Holy cow man-great tab-that musta taken you a LONG time to do-great job, really straight forward-takes some FAST pickin! nicely done

0 reply
farcry 90 Apr 02, 2006 03:09 PM

thank you very much, amazing.

guest
Wanna post a correction for this tab? Suggest correction