Oops, an error
Loading. Please wait.

Bron-Yr-Aur Stomp tab

version 2
version 2
141,077 views 15 this week
8 commentsread comments
1 2 3 4 5
x 8
add to favorites
×
Save as Personal and add changes to this tab that will be seen only by you. Learn more ›
×
You can save this tab as Personal to edit and correct it or add notes. All changes will be seen only by you. Learn more »
launch autoscroll
font size
0
reset
how to read this tab
guitar tuner
edit
Autoscroll
slow
fast
+/-
esc
set tempo
stop
Bron-Y-Aur Stomp                                 

Open G Tuning: DADGBD
                          

D|-----------------------------------0---------0-----|
B|--<>12------------------<>7------------8---------8-|
G|--<>12------------------<>7----------0---------0---|
D|--<>12------------------<>7----7g9-------7g9-------|
G|--<>12------------------<>7------------------------|
D|---------------------------------------------------|
                      

D|------0---------0---------0---------0----|---------------------0---------0----|
B|----------8---------8---------8----------|--<>12----<>7------------8----------|
G|--------0---------0---------0---------0--|--<>12----<>7----------0---------0--|
D|--7g9-------7g9-------7g9-------7g9------|--<>12----<>7----7g9-------7g9------|
G|-----------------------------------------|--<>12----<>7-----------------------|
D|-----------------------------------------|------------------------------------|


D|---------------------0---------0-----|------0------------------0-----------|
B|--<>12----<>7------------8---------8-|----------8--------0---------8-------|
G|--<>12----<>7----------0---------0---|--------0--------0---------0------0--|
D|--<>12----<>7----7g9-------7g9-------|--7g9-------0h-2-----7g9-------7-----|
G|--<>12----<>7------------------------|-------------------------------------|
D|-------------------------------------|-------------------------------------|

D|------0---------0---------0-----------|------0---------0---------0--------5--|
B|----------8---------8---------8-------|----------8---------8---------8-------|
G|--------0---------0---------0------0--|--------0---------0---------0------0--|
D|--7g9-------7g9-------7g9-------7-----|--7g9-------7g9-------7g9-------7-----|
G|--------------------------------------|--------------------------------------|
D|--------------------------------------|--------------------------------------|

D|------0---------0---------0--------5--|---7---------------------------------|
B|----------8---------8---------8-------|--10p-8-7-8----------------------8-8-|
G|--------0---------0---------0------0--|------------9p-7-6-7-----------------|
D|--7g9-------7g9-------7g9-------7-----|---------------------7p-0------------|
G|--------------------------------------|--------------------------9---7------|
D|--------------------------------------|----------------------------9--------|

D|---7---------------------------------|---7---------------------------------|
B|--10p-8-7-8----------------------8-8-|--10p-8-7-8----------------------8-8-|
G|------------9p-7-6-7-----------------|------------9p-7-6-7-----------------|
D|---------------------7p-0------------|---------------------7p-0-7---5------|
G|--------------------------9---7------|----------------------------7--------|
D|----------------------------9--------|-------------------------------------|

D|---7-------------------------------|------0-2---0h-2-0-------0-2---0----|
B|--10p-8-7-8------------------------|----------0--------0---------0------|
G|------------9p-7-6-7---------------|--2g4----------------2g4------------|
D|---------------------7p-0-7---5----|------------------------------------|
G|----------------------------7------|------------------------------------|
D|-----------------------------------|------------------------------------|

D|------0-2---0h-2-0-------0-2---0----|------0-2---0h-2-0-------0-2---0----|
B|----------0--------0---------0------|----------0--------0---------0------|
G|--2g4----------------2g4------------|--2g4----------------2g4------------|
D|------------------------------------|------------------------------------|
G|------------------------------------|------------------------------------|
D|------------------------------------|------------------------------------|

D|------0-2---0h-2-0-------0-2---0----|-----0----0---0---0---0---0----0--|
B|----------0--------0---------0------|----------------------------------|
G|--2g4----------------2g4------------|-------0h-2-0---0---0---0---------|
D|------------------------------------|--0h-2----------------------2--0--|
G|------------------------------------|----------------------------------|
D|------------------------------------|----------------------------------|

D|-----0----0---0---0---0---0----0--|-------------------------------|
B|----------------------------------|-----0-0-L-0-0-0---------------|
G|-------0h-2-0---0---0---0---------|-----0-0-L-0-0-0-3--3-3-5--5-5-|
D|--0h-2----------------------2--0--|--0--0-0-L-0-0-0-3--3-3-5--5-5-|
G|----------------------------------|--0--0-0-L-0-0-0-3--3-3-5--5-5-|
D|----------------------------------|-------------------------------|

D|-------------------------------|-------------------------------|
B|-----0-0-L-0-0-0---------------|-----0-0-L-0-0-0---------------|
G|-----0-0-L-0-0-0-3--3-3-5--5-5-|-----0-0-L-0-0-0-3--3-3-5--5-5-|
D|--0--0-0-L-0-0-0-3--3-3-5--5-5-|--0--0-0-L-0-0-0-3--3-3-5--5-5-|
G|--0--0-0-L-0-0-0-3--3-3-5--5-5-|--0--0-0-L-0-0-0-3--3-3-5--5-5-|
D|-------------------------------|-------------------------------|

D|-----------------|-----------------------------|-----------------------------|
B|-----0-0-L-0-0-0-|--6---6-L--6-6-L-------------|--6---6-L--6-6-L-------------|
G|-----0-0-L-0-0-0-|--7---7-L--7-7-L-------------|--7---7-L--7-7-L-------------|
D|--0--0-0-L-0-0-0-|--7---7-L--7-7-L-3--0-3p-0---|--7---7-L--7-7-L-3--0-3p-0---|
G|--0--0-0-L-0-0-0-|-----------------0--0-0------|-----------------0--0-0------|
D|-----------------|-----------------------------|-----------------------------|

D|-----------------------------|-----------------------------|
B|--6---6-L--6-6-L-------------|--6---6-L--6-6-L-------------|
G|--7---7-L--7-7-L-------------|--7---7-L--7-7-L-------------|
D|--7---7-L--7-7-L-3--0-3p-0---|--7---7-L--7-7-L-3--0-3p-0---|
G|-----------------0--0-0------|-----------------0--0-0------|
D|-----------------------------|-----------------------------|

D|----------------------------|----------------------------|
B|--5--5--5-5-5--5-5-5--0--3--|--4--5--5-5-0--5--5-5-------|
G|--5--5--5-5-5--5-5-5--0--3--|--4--5--5-5-0--5--5-5-0--3--|
D|--5--5--5-5-5--5-5-5--0--3--|--4--5--5-5-0--5--5-5-0--3--|
G|--5--5--5-5-5--5-5-5--0--3--|--4--5--5-5-0--5--5-5-0--3--|
D|----------------------------|----------------------------|

D|----------------------------|----------------------------|
B|--4--5--5-5-0--5--5-5-------|--4--5--5-5-0--5--5-5-------|
G|--4--5--5-5-0--5--5-5-0--3--|--4--5--5-5-0--5--5-5-3--3--|
D|--4--5--5-5-0--5--5-5-0--3--|--4--5--5-5-0--5--5-5-3--3--|
G|--4--5--5-5-0--5--5-5-0--3--|--4--5--5-5-0--5--5-5-3--3--|
D|----------------------------|----------------------------|

D|-----------------------------|-----------------------------|
B|--6---6-L--6-6-L-------------|--6---6-L--6-6-L-------------|
G|--7---7-L--7-7-L-------------|--7---7-L--7-7-L-------------|
D|--7---7-L--7-7-L-3--0-3p-0---|--7---7-L--7-7-L-3--0-3p-0---|
G|-----------------0--0-0------|-----------------0--0-0------|
D|-----------------------------|-----------------------------|

D|----------------------------|----------------------------|
B|--5--5--5-5-5--5-5-5--0--3--|--4--5--5-5-0--5--5-5-------|
G|--5--5--5-5-5--5-5-5--0--3--|--4--5--5-5-0--5--5-5-0--3--|
D|--5--5--5-5-5--5-5-5--0--3--|--4--5--5-5-0--5--5-5-0--3--|
G|--5--5--5-5-5--5-5-5--0--3--|--4--5--5-5-0--5--5-5-0--3--|
D|----------------------------|----------------------------|

D|----------------------------|----------------------------|
B|--4--5--5-5-0--5--5-5-------|--4--5--5-5-0--5--5-5-------|
G|--4--5--5-5-0--5--5-5-0--3--|--4--5--5-5-0--5--5-5-3--3--|
D|--4--5--5-5-0--5--5-5-0--3--|--4--5--5-5-0--5--5-5-3--3--|
G|--4--5--5-5-0--5--5-5-0--3--|--4--5--5-5-0--5--5-5-3--3--|
D|----------------------------|----------------------------|

D|-----------------------------|-----------------------------|
B|--6---6-L--6-6-L-------------|--6---6-L--6-6-L-------------|
G|--7---7-L--7-7-L-------------|--7---7-L--7-7-L-------------|
D|--7---7-L--7-7-L-3--0-3p-0---|--7---7-L--7-7-L-3--0-3p-0---|
G|-----------------0--0-0------|-----------------0--0-0------|
D|-----------------------------|-----------------------------|

D|-----------------------------|-------------------------------|
B|---------2--2-2-2---2-L-2-2--|--5--6--5------5--5-5-0--3--5--|
G|--2--2---2--2-2-2---2-L-2-2--|--5--5--5-7--7-5--5-5-0--3--5--|
D|--2--2---2--2-2-2---2-L-2-2--|--5--5--5-5--5-5--5-5-0--3--5--|
G|--2--2---2-------------------|--5-------------------0--3--5--|
D|-----------------------------|-------------------------------|

D|---------------------------|------------------------|
B|--0---0-0--0--L-0-0--3--5--|--0---0-0--0--L-0-0--3--|
G|--0---0-0--0--L-0-0--3--5--|--0---0-0--0--L-0-0--3--|
D|--0---0-0--0--L-0-0--3--5--|--0---0-0--0--L-0-0--3--|
G|--0---0-0--0--L-0-0--3--5--|--0---0-0--0--L-0-0-----|
D|--------0------------------|--------0---------------|

D|-----------------------------|-------------------------------|
B|---------2--2-2-2---2-L-2-2--|--5--6--5------5--5-5-0--3--5--|
G|--2--2---2--2-2-2---2-L-2-2--|--5--5--5-7--7-5--5-5-0--3--5--|
D|--2--2---2--2-2-2---2-L-2-2--|--5--5--5-5--5-5--5-5-0--3--5--|
G|--2--2---2-------------------|--5-------------------0--3--5--|
D|-----------------------------|-------------------------------|

D|---------------------------|------------------------|
B|--0---0-0--0--L-0-0--3--5--|--0---0-0--0--0-0-0--0--|
G|--0---0-0--0--L-0-0--3--5--|--0---0-0--0--0-0-0--0--|
D|--0---0-0--0--L-0-0--3--5--|--0---0-0--0--0-0-0--0--|
G|--0---0-0--0--L-0-0--3--5--|--0---0-0--0--0-0-0--0--|
D|--------0------------------|--------0---------------|

D|-----------------------------|-----------------------------|
B|--6---6-L--6-6-L-------------|--6---6-L--6-6-L-------------|
G|--7---7-L--7-7-L-------------|--7---7-L--7-7-L-------------|
D|--7---7-L--7-7-L-3--0-3p-0---|--7---7-L--7-7-L-3--0-3p-0---|
G|-----------------0--0-0------|-----------------0--0-0------|
D|-----------------------------|-----------------------------|

D|----------------------------|----------------------------|
B|--5--5--5-5-5--5-5-5--0--3--|--4--5--5-5-0--5--5-5-------|
G|--5--5--5-5-5--5-5-5--0--3--|--4--5--5-5-0--5--5-5-0--3--|
D|--5--5--5-5-5--5-5-5--0--3--|--4--5--5-5-0--5--5-5-0--3--|
G|--5--5--5-5-5--5-5-5--0--3--|--4--5--5-5-0--5--5-5-0--3--|
D|----------------------------|----------------------------|

D|----------------------------|----------------------------|
B|--4--5--5-5-0--5--5-5-------|--4--5--5-5-0--5--5-5-------|
G|--4--5--5-5-0--5--5-5-0--3--|--4--5--5-5-0--5--5-5-3--3--|
D|--4--5--5-5-0--5--5-5-0--3--|--4--5--5-5-0--5--5-5-3--3--|
G|--4--5--5-5-0--5--5-5-0--3--|--4--5--5-5-0--5--5-5-3--3--|
D|----------------------------|----------------------------|

D|-----------------------------|-----------------------------|
B|--6---6-L--6-6-L-------------|--6---6-L--6-6-L-------------|
G|--7---7-L--7-7-L-------------|--7---7-L--7-7-L-------------|
D|--7---7-L--7-7-L-3--0-3p-0---|--7---7-L--7-7-L-3--0-3p-0---|
G|-----------------0--0-0------|-----------------0--0-0------|
D|-----------------------------|-----------------------------|

D|----------------------------|----------------------------|
B|--5--5--5-5-5--5-5-5--0--3--|--4--5--5-5-0--5--5-5-------|
G|--5--5--5-5-5--5-5-5--0--3--|--4--5--5-5-0--5--5-5-0--3--|
D|--5--5--5-5-5--5-5-5--0--3--|--4--5--5-5-0--5--5-5-0--3--|
G|--5--5--5-5-5--5-5-5--0--3--|--4--5--5-5-0--5--5-5-0--3--|
D|----------------------------|----------------------------|

D|----------------------------|----------------------------|
B|--4--5--5-5-0--5--5-5-------|--4--5--5-5-0--5--5-5-------|
G|--4--5--5-5-0--5--5-5-0--3--|--4--5--5-5-0--5--5-5-3--3--|
D|--4--5--5-5-0--5--5-5-0--3--|--4--5--5-5-0--5--5-5-3--3--|
G|--4--5--5-5-0--5--5-5-0--3--|--4--5--5-5-0--5--5-5-3--3--|
D|----------------------------|----------------------------|

D|-----------------------------|-----------------------------|
B|--6---6-L--6-6-L-------------|--6---6-L--6-6-L-------------|
G|--7---7-L--7-7-L-------------|--7---7-L--7-7-L-------------|
D|--7---7-L--7-7-L-3--0-3p-0---|--7---7-L--7-7-L-3--0-3p-0---|
G|-----------------0--0-0------|-----------------0--0-0------|
D|-----------------------------|-----------------------------|
 
D|-----------------------------|-------------------------------|
B|---------2--2-2-2---2-L-2-2--|--5--6--5------5--5-5-0--3--5--|
G|--2--2---2--2-2-2---2-L-2-2--|--5--5--5-7--7-5--5-5-0--3--5--|
D|--2--2---2--2-2-2---2-L-2-2--|--5--5--5-5--5-5--5-5-0--3--5--|
G|--2--2---2-------------------|--5-------------------0--3--5--|
D|-----------------------------|-------------------------------|

D|---------------------------|------------------------|
B|--0---0-0--0--L-0-0--3--5--|--0---0-0--0--L-0-0--3--|
G|--0---0-0--0--L-0-0--3--5--|--0---0-0--0--L-0-0--3--|
D|--0---0-0--0--L-0-0--3--5--|--0---0-0--0--L-0-0--3--|
G|--0---0-0--0--L-0-0--3--5--|--0---0-0--0--L-0-0-----|
D|--------0------------------|--------0---------------|

D|-----------------------------|-------------------------------|
B|---------2--2-2-2---2-L-2-2--|--5--6--5------5--5-5-0--3--5--|
G|--2--2---2--2-2-2---2-L-2-2--|--5--5--5-7--7-5--5-5-0--3--5--|
D|--2--2---2--2-2-2---2-L-2-2--|--5--5--5-5--5-5--5-5-0--3--5--|
G|--2--2---2-------------------|--5-------------------0--3--5--|
D|-----------------------------|-------------------------------|

D|---------------------------|-------------------------|
B|--0---0-0--0--L-0-0--3--5--|--0---0-0--0--0-0-0-0-0--|
G|--0---0-0--0--L-0-0--3--5--|--0---0-0--0--0-0-0-0-0--|
D|--0---0-0--0--L-0-0--3--5--|--0---0-0--0--0-0-0-0-0--|
G|--0---0-0--0--L-0-0--3--5--|--0---0-0--0--0-0-0-0-0--|
D|--------0------------------|--------0----------------|


    with slide                                    
    S           S  S  S S S E  S  S  S  S  E  E   
D|--9----------12-12-12--------9-12-12-12-12-----|
B|--9----------12-12-12---0-0--9-12-12-12-12--0--|
G|--9----------12-12-12---0-0--9-12-12-12-12--0--|
D|------------------------0-0-----------------0--|
G|-----------------------------------------------|
D|-----------------------------------------------|

D|--9-12-12-12-12------------------|--9-12-12-12--------9-12-12-12-12-----|
B|--9-12-12-12-12--0--3--5--0-0-0--|--9-12-12-12---0-0--9-12-12-12-12--0--|
G|--9-12-12-12-12--0--3--5--0-0-0--|--9-12-12-12---0-0--9-12-12-12-12--0--|
D|-----------------0--3--5--0-0-0--|---------------0-0-----------------0--|
G|-----------------0--3--5--0-0-0--|--------------------------------------|
D|---------------------------------|--------------------------------------|

D|--9-12-12-12-12------------------|--12-15-15-15--------12-15-15-15-15-----|
B|--9-12-12-12-12--0--3--5--0-0-0--|--12-15-15-15---0-0--12-15-15-15-15--0--|
G|--9-12-12-12-12--0--3--5--0-0-0--|--12-15-15-15---0-0--12-15-15-15-15--0--|
D|-----------------0--3--5--0-0-0--|----------------0-0------------------0--|
G|-----------------0--3--5--0-0-0--|----------------------------------------|
D|---------------------------------|----------------------------------------|

D|--12-15-15-15-15------------------|--12-15-15-15--------12-15-15-15-15-----|
B|--12-15-15-15-15--0--3--5--0-0-0--|--12-15-15-15---0-0--12-15-15-15-15--0--|
G|--12-15-15-15-15--0--3--5--0-0-0--|--12-15-15-15---0-0--12-15-15-15-15--0--|
D|------------------0--3--5--0-0-0--|----------------0-0------------------0--|
G|------------------0--3--5--0-0-0--|----------------------------------------|
D|----------------------------------|----------------------------------------|

D|--12-15-15-15-15------------------|-----------------------------|
B|--12-15-15-15-15--0--3--5--0-0-0--|---------2--2-2-2---2-L-2-2--|
G|--12-15-15-15-15--0--3--5--0-0-0--|--2--2---2--2-2-2---2-L-2-2--|
D|------------------0--3--5--0-0-0--|--2--2---2--2-2-2---2-L-2-2--|
G|------------------0--3--5--0-0-0--|--2--2---2-------------------|
D|----------------------------------|-----------------------------|
 
D|-------------------------------|---------------------------|
B|--5--6--5------5--5-5-0--3--5--|--0---0-0--0--L-0-0--3--5--|
G|--5--5--5-7--7-5--5-5-0--3--5--|--0---0-0--0--L-0-0--3--5--|
D|--5--5--5-5--5-5--5-5-0--3--5--|--0---0-0--0--L-0-0--3--5--|
G|--5-------------------0--3--5--|--0---0-0--0--L-0-0--3--5--|
D|-------------------------------|--------0------------------|

D|------------------------|-----------------------------|
B|--0---0-0--0--L-0-0--3--|---------2--2-2-2---2-L-2-2--|
G|--0---0-0--0--L-0-0--3--|--2--2---2--2-2-2---2-L-2-2--|
D|--0---0-0--0--L-0-0--3--|--2--2---2--2-2-2---2-L-2-2--|
G|--0---0-0--0--L-0-0-----|--2--2---2-------------------|
D|--------0---------------|-----------------------------|

D|-------------------------------|---------------------------|
B|--5--6--5------5--5-5-0--3--5--|--0---0-0--0--L-0-0--3--5--|
G|--5--5--5-7--7-5--5-5-0--3--5--|--0---0-0--0--L-0-0--3--5--|
D|--5--5--5-5--5-5--5-5-0--3--5--|--0---0-0--0--L-0-0--3--5--|
G|--5-------------------0--3--5--|--0---0-0--0--L-0-0--3--5--|
D|-------------------------------|--------0------------------|

D|-------------------------|---------------------0---------0----|
B|--0---0-0--0--0-0-0-0-0--|--<>12----<>7------------8----------|
G|--0---0-0--0--0-0-0-0-0--|--<>12----<>7----------0---------0--|
D|--0---0-0--0--0-0-0-0-0--|--<>12----<>7----7g9-------7g9------|
G|--0---0-0--0--0-0-0-0-0--|--<>12----<>7-----------------------|
D|--------0----------------|------------------------------------|

D|---------------------0---------0-----|------0---------0-----------|
B|--<>12----<>7------------8---------8-|----------8-----------------|
G|--<>12----<>7----------0---------0---|--------0---------0------0--|
D|--<>12----<>7----7g9-------7g9-------|--7g9-------7g9-----0-7-----|
G|--<>12----<>7------------------------|----------------------------|
D|-------------------------------------|----------------------------|

D|------0---------0--------------------|--------------------------------|
B|----------8---------8----------------|--------------------------------|
G|--------0---------0---9p-7---7----0--|--9p-7---7----0--9p-7---7----0--|
D|--7g9-------7g9------------9---7-----|-------9---7----------9---7-----|
G|-------------------------------------|--------------------------------|
D|-------------------------------------|--------------------------------|
  
D|-------------------------------------|------0---------0---------0-----------|
B|-------------------------------------|----------8---------8---------8-------|
G|--2p-0------2p-0------2p-0------0----|--------0---------0---------0------0--|
D|-------0h-2------0h-2------0h-2------|--7g9-------7g9-------7g9-------7-----|
G|-------------------------------------|--------------------------------------|
D|-------------------------------------|--------------------------------------|

D|------0-------0--------0-------0----|-------0--------0---------0--------0----|
B|----------8-L--------------8-L------|-----------10-L---------------10-L------|
G|--------0-------0--------0-------0--|---------0--------0---------0--------0--|
D|--7g9--------------7g9--------------|--9g11---------------9g11---------------|
G|------------------------------------|----------------------------------------|
D|------------------------------------|----------------------------------------|

D|------0------0--------0------0----|-------0-------0---------0-------0----|
B|---------8-L-------------8-L------|----------10-L--------------10-L------|
G|---------------0---------------0--|-----------------0-----------------0--|
D|--7g9-------------7g9-------------|--9g11--------------9g11--------------|
G|----------------------------------|--------------------------------------|
D|----------------------------------|--------------------------------------|

D|--12p-10----------10------------------------|
B|---------12-10------------------10-L--------|
G|---------11-------11-----11----------11-----|
D|--12-----------12-12--12-----12---------12--|
G|--------------------------------------------|
D|--------------------------------------------|

D|--12p-10----------10------------------------|
B|---------12-10------------------10-L--------|
G|---------11-------11-----11----------11-----|
D|--12-----------12-12--12-----12---------12--|
G|--------------------------------------------|
D|--------------------------------------------|

D|--12p-10----------10------------------------|
B|---------12-10------------------10-L--------|
G|---------11-------11-----11----------11-----|
D|--12-----------12-12--12-----12---------12--|
G|--------------------------------------------|
D|--------------------------------------------|

D|------0---------0---------0-----------|------0-2---0h-2-0-------0-2---0----|
B|----------8---------8---------8-------|----------0--------0---------0------|
G|--------0---------0---------0------0--|--2g4----------------2g4------------|
D|--7g9-------7g9-------7g9-------7-----|------------------------------------|
G|--------------------------------------|------------------------------------|
D|--------------------------------------|------------------------------------|

D|------0-2---0h-2-0---------------------|------0-2---0h-2-0-------0-2---0----|
B|----------0--------0-------------------|----------0--------0---------0------|
G|--2g4----------------4p-0------0--0h-4-|--2g4----------------2g4------------|
D|--------------------------0h-2---------|------------------------------------|
G|---------------------------------------|------------------------------------|
D|---------------------------------------|------------------------------------|

D|--------------------------------|------0-2---0h-2-0-------0-2---0----|
B|--------------------------------|----------0--------0---------0------|
G|------------------0-2---2---0---|--2g4----------------2g4------------|
D|------------0-2-4-----4---4-----|------------------------------------|
G|--0-0-2-4-5---------------------|------------------------------------|
D|--------------------------------|------------------------------------|

D|------0-2---0h-2-0---------------------|------0-2---0h-2-0-------0-2---0----|
B|----------0--------0-------------------|----------0--------0---------0------|
G|--2g4----------------4p-0---0----------|--2g4----------------2g4------------|
D|--------------------------4---4p-0---0-|------------------------------------|
G|-----------------------------------6---|------------------------------------|
D|---------------------------------------|------------------------------------|

D|-------------------------------|--------------------0---0-0----|
B|-------------------------------|-------------------------------|
G|------------------0-2---2-L----|--2p-0---0-L---2--0---0--------|
D|------------0-2-4-----4--------|-------4-----4-----------------|
G|--0-0-2-4-5--------------------|-------------------------------|
D|-------------------------------|-------------------------------|
 
D|----------------------------------|---------------------------------------|
B|----------------------------------|---------------------------------------|
G|--2p-0---0-L---2-------0-L--------|--2p-0---0-L---2-------0-L-------------|
D|-------4-----4----0--2-----0-2p-0-|-------4-----4----0--2-----0-2p-0-2p-0-|
G|----------------------------------|---------------------------------------|
D|----------------------------------|---------------------------------------|

D|----------------------------|----------------------------|
B|--6--6---6-6-6-8--8---8-8-8-|--6--6---6-6-6-8--8---8-8-8-|
G|--7--7---7-7-7-9--9---9-9-9-|--7--7---7-7-7-9--9---9-9-9-|
D|--7--7---7-7-7-9--9---9-9-9-|--7--7---7-7-7-9--9---9-9-9-|
G|----------------------------|----------------------------|
D|----------------------------|----------------------------|

D|--------------------------------------|--------------------------------------|
B|--10--10---10-10-10-12--12---12-12-12-|--10--10---10-10-10-12--12---12-12-12-|
G|--11--11---11-11-11-13--13---13-13-13-|--11--11---11-11-11-13--13---13-13-13-|
D|--12--12---12-12-12-14--14---14-14-14-|--12--12---12-12-12-14--14---14-14-14-|
G|--------------------------------------|--------------------------------------|
D|--------------------------------------|--------------------------------------|

D|--14--14---14-14-14-15--15---15-15-15-|--14--14---14-14-14-15--15---15-15-15-|
B|--14--14---14-14-14-15--15---15-15-15-|--14--14---14-14-14-15--15---15-15-15-|
G|--14--14---14-14-14-15--15---15-15-15-|--14--14---14-14-14-15--15---15-15-15-|
D|--------------------------------------|--------------------------------------|
G|--------------------------------------|--------------------------------------|
D|--------------------------------------|--------------------------------------|

D|--14--14---14-14-14-15--15---15-15-15-|--14--14---14-14-14-15--15---15-15-15-|
B|--14--14---14-14-14-15--15---15-15-15-|--14--14---14-14-14-15--15---15-15-15-|
G|--14--14---14-14-14-15--15---15-15-15-|--14--14---14-14-14-15--15---15-15-15-|
D|--------------------------------------|--------------------------------------|
G|--------------------------------------|--------------------------------------|
D|--------------------------------------|--------------------------------------|

D|--14--14---14-14-14-10--10---10-10-10-|--12--12---12-12-12--------------|
B|--14--14---14-14-14-10--10---10-10-10-|--12--12---12-12-12-6--6---6-6-6-|
G|--14--14---14-14-14-10--10---10-10-10-|--12--12---12-12-12-7--7---7-7-7-|
D|--------------------------------------|--------------------7--7---7-7-7-|
G|--------------------------------------|---------------------------------|
D|--------------------------------------|---------------------------------|

D|--8--8---8-8-8--------------|---------------|---------------3--3---3-3-3-|
B|--8--8---8-8-8-6--6---6-6-6-|--8--8---8-8-8-|--2--2---2-2-2-3--3---3-3-3-|
G|--8--8---8-8-8-7--7---7-7-7-|--9--9---9-9-9-|--2--2---2-2-2-2--2---2-2-2-|
D|---------------7--7---7-7-7-|--9--9---9-9-9-|--2--2---2-2-2--------------|
G|----------------------------|---------------|----------------------------|
D|----------------------------|---------------|----------------------------|

D|---------------3--3---3-3-3-|---------------2--3---3-3-3-|
B|--2--2---2-2-2-3--3---3-3-3-|--2--2---2-3-2-2--3---3-3-3-|
G|--2--2---2-2-2-2--2---2-2-2-|--2--2---2-2-2-2--2---2-2-2-|
D|--2--2---2-2-2--------------|--2--2---2-2-2--------------|
G|----------------------------|----------------------------|
D|----------------------------|----------------------------|

D|---------------2--3---3-3-3-|------0---------0---------0-----------|
B|--2--2---2-3-2-2--3---3-3-3-|----------8---------8---------8-------|
G|--2--2---2-2-2-2--2---2-2-2-|--------0---------0---------0------0--|
D|--2--2---2-2-2--------------|--7g9-------7g9-------7g9-------7-----|
G|----------------------------|--------------------------------------|
D|----------------------------|--------------------------------------|

D|------0------------------------|----9p-0-----0------9p-0-----0----|
B|----------8--------------------|---------8-L-------------8-L------|
G|--------0------0---------------|---------------0---------------0--|
D|--7g9-------7-----0---0---0----|--9---------------9---------------|
G|--------------------0---0------|----------------------------------|
D|-------------------------------|----------------------------------|


D|----9p-0-----0------9p-0-----0----|--12p-10----------10------------------------|
B|---------8-L-------------8-L------|---------12-10------------------10-L--------|
G|---------------0---------------0--|---------11-------11-----11----------11-----|
D|--9---------------9---------------|--12-----------12-12--12-----12---------12--|
G|----------------------------------|--------------------------------------------|
D|----------------------------------|--------------------------------------------|

D|--12p-10----------10------------------------|
B|---------12-10------------------10-L--------|
G|---------11-------11-----11----------11-----|
D|--12-----------12-12--12-----12---------12--|
G|--------------------------------------------|
D|--------------------------------------------|
 
D|--12p-10------------12p-10------------|
B|---------12-10-L-----------12-10-L----|
G|-----------------12----------------12-|
D|--12----------------12----------------|
G|--------------------------------------|
D|--------------------------------------|
  
D|--12p-10----------10------------------------|
B|---------12-10------------------10-L--------|
G|---------11-------11-----11----------11-----|
D|--12-----------12-12--12-----12---------12--|
G|--------------------------------------------|
D|--------------------------------------------|

D|------0-2---0h-2-0-------0-2---0----|------0-2---0h-2-0-------0-2---0----|
B|----------0--------0---------0------|----------0--------0---------0------|
G|--2g4----------------2g4------------|--2g4----------------2g4------------|
D|------------------------------------|------------------------------------|
G|------------------------------------|------------------------------------|
D|------------------------------------|------------------------------------|

D|------0-2---0h-2-0-------0-2---0----|------0-2---0h-2-0-------0-2---0----|
B|----------0--------0---------0------|----------0--------0---------0------|
G|--2g4----------------2g4------------|--2g4----------------2g4------------|
D|------------------------------------|------------------------------------|
G|------------------------------------|------------------------------------|
D|------------------------------------|------------------------------------|
  
D|-------------------------------|-------------------------------|
B|-----0-0-L-0-0-0---------------|-----0-0-L-0-0-0---------------|
G|-----0-0-L-0-0-0-3--3-3-5--5-5-|-----0-0-L-0-0-0-3--3-3-5--5-5-|
D|--0--0-0-L-0-0-0-3--3-3-5--5-5-|--0--0-0-L-0-0-0-3--3-3-5--5-5-|
G|--0--0-0-L-0-0-0-3--3-3-5--5-5-|--0--0-0-L-0-0-0-3--3-3-5--5-5-|
D|-------------------------------|-------------------------------|

D|-------------------------------|-----------------|-----------------------------|
B|-----0-0-L-0-0-0---------------|-----0-0-L-0-0-0-|--6---6-L--6-6-L-------------|
G|-----0-0-L-0-0-0-3--3-3-5--5-5-|-----0-0-L-0-0-0-|--7---7-L--7-7-L-------------|
D|--0--0-0-L-0-0-0-3--3-3-5--5-5-|--0--0-0-L-0-0-0-|--7---7-L--7-7-L-3--0-3p-0---|
G|--0--0-0-L-0-0-0-3--3-3-5--5-5-|--0--0-0-L-0-0-0-|-----------------0--0-0------|
D|-------------------------------|-----------------|-----------------------------|
 
D|-----------------------------|-----------------------------|
B|--6---6-L--6-6-L-------------|--6---6-L--6-6-L-------------|
G|--7---7-L--7-7-L-------------|--7---7-L--7-7-L-------------|
D|--7---7-L--7-7-L-3--0-3p-0---|--7---7-L--7-7-L-3--0-3p-0---|
G|-----------------0--0-0------|-----------------0--0-0------|
D|-----------------------------|-----------------------------|
 
D|-----------------------------|----------------------------|
B|--6---6-L--6-6-L-------------|--5--5--5-5-5--5-5-5--0--3--|
G|--7---7-L--7-7-L-------------|--5--5--5-5-5--5-5-5--0--3--|
D|--7---7-L--7-7-L-3--0-3p-0---|--5--5--5-5-5--5-5-5--0--3--|
G|-----------------0--0-0------|--5--5--5-5-5--5-5-5--0--3--|
D|-----------------------------|----------------------------|
 
D|----------------------------|----------------------------|
B|--4--5--5-5-0--5--5-5-------|--4--5--5-5-0--5--5-5-------|
G|--4--5--5-5-0--5--5-5-0--3--|--4--5--5-5-0--5--5-5-0--3--|
D|--4--5--5-5-0--5--5-5-0--3--|--4--5--5-5-0--5--5-5-0--3--|
G|--4--5--5-5-0--5--5-5-0--3--|--4--5--5-5-0--5--5-5-0--3--|
D|----------------------------|----------------------------|
  
D|----------------------------|-----------------------------|
B|--4--5--5-5-0--5--5-5-------|--6---6-L--6-6-L-------------|
G|--4--5--5-5-0--5--5-5-3--3--|--7---7-L--7-7-L-------------|
D|--4--5--5-5-0--5--5-5-3--3--|--7---7-L--7-7-L-3--0-3p-0---|
G|--4--5--5-5-0--5--5-5-3--3--|-----------------0--0-0------|
D|----------------------------|-----------------------------|


    E.  S E  S S S E  S S  E.     E  E  S S E  S S E  E  E   
D|-----------------------------|----------------------------|
B|--6---6-L--6-6-L-------------|--5--5--5-5-5--5-5-5--0--3--|
G|--7---7-L--7-7-L-------------|--5--5--5-5-5--5-5-5--0--3--|
D|--7---7-L--7-7-L-3--0-3p-0---|--5--5--5-5-5--5-5-5--0--3--|
G|-----------------0--0-0------|--5--5--5-5-5--5-5-5--0--3--|
D|-----------------------------|----------------------------|
 
D|----------------------------|----------------------------|
B|--4--5--5-5-0--5--5-5-------|--4--5--5-5-0--5--5-5-------|
G|--4--5--5-5-0--5--5-5-0--3--|--4--5--5-5-0--5--5-5-0--3--|
D|--4--5--5-5-0--5--5-5-0--3--|--4--5--5-5-0--5--5-5-0--3--|
G|--4--5--5-5-0--5--5-5-0--3--|--4--5--5-5-0--5--5-5-0--3--|
D|----------------------------|----------------------------|
  
D|----------------------------|-----------------------------|
B|--4--5--5-5-0--5--5-5-------|--6---6-L--6-6-L-------------|
G|--4--5--5-5-0--5--5-5-3--3--|--7---7-L--7-7-L-------------|
D|--4--5--5-5-0--5--5-5-3--3--|--7---7-L--7-7-L-3--0-3p-0---|
G|--4--5--5-5-0--5--5-5-3--3--|-----------------0--0-0------|
D|----------------------------|-----------------------------|

D|-----------------------------|-----------------------------|
B|--6---6-L--6-6-L-------------|---------2--2-2-2---2-L-2-2--|
G|--7---7-L--7-7-L-------------|--2--2---2--2-2-2---2-L-2-2--|
D|--7---7-L--7-7-L-3--0-3p-0---|--2--2---2--2-2-2---2-L-2-2--|
G|-----------------0--0-0------|--2--2---2-------------------|
D|-----------------------------|-----------------------------|

D|-------------------------------|---------------------------|
B|--5--6--5------5--5-5-0--3--5--|--0---0-0--0--L-0-0--3--5--|
G|--5--5--5-7--7-5--5-5-0--3--5--|--0---0-0--0--L-0-0--3--5--|
D|--5--5--5-5--5-5--5-5-0--3--5--|--0---0-0--0--L-0-0--3--5--|
G|--5-------------------0--3--5--|--0---0-0--0--L-0-0--3--5--|
D|-------------------------------|--------0------------------|

D|------------------------|-----------------------------|
B|--0---0-0--0--L-0-0--3--|---------2--2-2-2---2-L-2-2--|
G|--0---0-0--0--L-0-0--3--|--2--2---2--2-2-2---2-L-2-2--|
D|--0---0-0--0--L-0-0--3--|--2--2---2--2-2-2---2-L-2-2--|
G|--0---0-0--0--L-0-0-----|--2--2---2-------------------|
D|--------0---------------|-----------------------------|

D|-------------------------------|---------------------------|
B|--5--6--5------5--5-5-0--3--5--|--0---0-0--0--L-0-0--3--5--|
G|--5--5--5-7--7-5--5-5-0--3--5--|--0---0-0--0--L-0-0--3--5--|
D|--5--5--5-5--5-5--5-5-0--3--5--|--0---0-0--0--L-0-0--3--5--|
G|--5-------------------0--3--5--|--0---0-0--0--L-0-0--3--5--|
D|-------------------------------|--------0------------------|
       
D|-----------------------|
B|--0---0-0--0--L--------|
G|--0---0-0--0--L--------|
D|--0---0-0--0--L--------|
G|--0---0-0--0--L--------|
D|--------0--------------|

************************************

| g  Grace note
| h  Hammer-on
| p  Pull-off

************************************

            
            
Suggest correction
Creating personal tab
Creating personal tab
You can edit any tab online and save it as your Personal.

You can edit, replace or remove any tab part or add personal notes – all changes will be seen only by you.

Personal tabs can be accessed anytime from any device, even offline.
Learn more »
comments
print report bad tab
8 comments total. Showing first comments.
+5 reply
jaynapoleon 41 Jul 12, 2009 08:28 AM

What does the L's and the G's mean?

0 reply
zosoperrylennon 70 Jul 15, 2009 06:28 PM

thats what I was wondering

0 reply
almost31992 10 Oct 19, 2009 06:03 PM

You should make a key

guest
You may want to rate the tab now too:
select rating
Wanna post a correction for this tab? Suggest correction