Oops, an error
Loading. Please wait.

Bron-Yr-Aur Stomp tab

version 4
version 4
11,761 views 372 this week
3 commentsread comments
1 2 3 4 5
x 6
add to favorites
×
Save as Personal and add changes to this tab that will be seen only by you. Learn more ›
×
You can save this tab as Personal to edit and correct it or add notes. All changes will be seen only by you. Learn more »
launch autoscroll
font size
0
reset
how to read this tab
guitar tuner
edit
Autoscroll
slow
fast
+/-
esc
set tempo
stop
Author
Difficulty
Finally, here is the correct tab for Bron Y Aur Stomp…

Tuning:
(6 is the lowest in pitch and 1 is highest)
(6)=C (-4 semitones)| (5)=F (-4)| (4)=C (-2)| (3)=F (-2)| (2)=A (-2) | (1)=C (-4) 
                 

<> = harmonics  ^ = upstroke

C||--<12>--------------------------^0---------^0----|
A||--<12>---------------<7>--------------^8---------|
F||--<12>---------------<7>-------------------------|
C||--<12>---------------<7>----7s9----9----------9--|
F||--<12>---------------<7>-----------------0-------|
C||--<12>---------------<7>-------------------------| 


C||--<12>--------------------------^0---------^0----|
A||--<12>---------------<7>--------------^8---------|
F||--<12>---------------<7>-----------0----------0--|
C||--<12>---------------<7>----7s9----------9-------|
F||--<12>---------------<7>-------------------------|
C||--<12>---------------<7>-------------------------|
 

C||---------^0---------^0---------^0--------------|
A||---------------^8---------^8--------^8---------|
F||-------------0----------0---------0-------0----|
C||-----7s9-----------9---------9---------7-------|
F||-----------------------------------------------|
C||-----------------------------------------------|

C||---------^0---------^0---------^0---------^0---|
A||---------------^8---------^8--------^8---------|
F||-------------0----------0---------0----------0-| x2
C||-----7s9-----------9---------9---------7-------|
F||-----------------------------------------------|
C||-----------------------------------------------|

C||-----------------------------------------------|
A||-------^3-------^3---------------3-3-^3--------|
F||--4p0-0----4p0-0-----------0-^2--0-0--0 -------|
C||--------------------0-h2-----------------------|
F||-----------------------------------------------|
C||-----------------------------------------------|

C||---------------------------------------|
A||-------^3--------^3--------------------|
F||--4p0-0----4p0-0----2p0-0-^0-----------|
C||-----------------------------2-0-------|
F||---------------------------------------|
C||---------------------------------------|


C||------------------^0-------------------|
A||-------^3-------3-----------^3------3--|
F||--4p0-0---4p0-0-------4p0-0----2p0--0--|
C||---------------------------------------|
F||---------------------------------------|
C||---------------------------------------|

C||---------------------------------------|
A||--------------3-3-3-3------------------| x2
F||-------0-^2-0--0-0-0-------------------|
C||--0-^2----------------2-0--------------|
F||---------------------------------------|
C||---------------------------------------|

                                
C||--3--3-^3---5--5--^5-----5---5--^5--5-^5----------|
A||--3--3-^3---5--5--^5-----0---0--^0--0-^0----------|
F||--3--3-^3---5--5--^5-----0---0--^0--0-^0----------|  x2
C||--3--3-^3---5--5--^5-----0---0--^0--0-^0----------|
F||--3--3-^3---5--5--^5-----0---0--^0--0-^0----------|
C||--------------------------------------------------|
        

C||--3--3-^3---5--5-^5---0-0-^0--^0-0-^0-------------|
A||--3--3-^3---5--5-^5---0-0-^0--^0-0-^0-------------|
F||--3--3-^3---5--5-^5---0-0-^0--^0-0-^0-------------|
C||--3--3-^3---5--5-^5---0-0-^0--^0-0-^0-------------|
F||--3--3-^3---5--5-^5---0-0-^0--^0-0-^0-------------|
C||--------------------------------------------------|


                         |        x5     |
C||--3--3-^3---5--5-^5---|0-0-^0--^0-0-^0|-------------|
A||--3--3-^3---5--5-^5---|0-0-^0--^0-0-^0|-------------|
F||--3--3-^3---5--5-^5---|0-0-^0--^0-0-^0|-------------|
C||--3--3-^3---5--5-^5---|0-0-^0--^0-0-^0|-------------|
F||--3--3-^3---5--5-^5---|0-0-^0--^0-0-^0|-------------|
C||----------------------------------------------------|


C||--0-0--^0-0-^0---0-^0-0-^0-0------|
A||--0-0--^0-0-^0---0-^0-0-^0-0------|
F||--0-0--^0-0-^0---0-^0-0-^0-0------| x6
C||--0-0--^0-0-^0---3p-0-0-^0-0------|
F||--0-0--^0-0-^0---0-^0-3-^0-0------|
C||------------------------^0-3------|

           ^    ^     |      x3 ^     |
C||--5--5--5-5--5-5---|0-3-4-5--0-0-5-|--3-3-|  
A||--5--5--5-5--5-5---|0-3-4-5--0-0-5-|--3-3-|
F||--5--5--5-5--5-5---|0-3-4-5--0-0-5-|--3-3-|
C||--5--5--5-5--5-5---|0-3-4-5--0-0-5-|--3-3-|
F||--5--5--5-5--5-5---|0-3-4-5--0-0-5-|--3-3-|
C||--5--5--5-5--5-5--------------------------|


C||--0-0--^0-0-^0---0-^0-0-^0-0------|
A||--0-0--^0-0-^0---0-^0-0-^0-0------|
F||--0-0--^0-0-^0---0-^0-0-^0-0------| x2
C||--0-0--^0-0-^0---3p-0-0-^0-0------|
F||--0-0--^0-0-^0---0-^0-3-^0-0------|
C||------------------------^0-3------|

           ^    ^     |      x3 ^     |
C||--5--5--5-5--5-5---|0-3-4-5--0-0-5-|--3-3-|  
A||--5--5--5-5--5-5---|0-3-4-5--0-0-5-|--3-3-|
F||--5--5--5-5--5-5---|0-3-4-5--0-0-5-|--3-3-|
C||--5--5--5-5--5-5---|0-3-4-5--0-0-5-|--3-3-|
F||--5--5--5-5--5-5---|0-3-4-5--0-0-5-|--3-3-|
C||--5--5--5-5--5-5--------------------------|





C||--0-0--^0-0-^0---0-^0-0-^0-0------|
A||--0-0--^0-0-^0---0-^0-0-^0-0------|
F||--0-0--^0-0-^0---0-^0-0-^0-0------| x2
C||--0-0--^0-0-^0---3p-0-0-^0-0------|
F||--0-0--^0-0-^0---0-^0-3-^0-0------|
C||------------------------^0-3------|

                            ^     ^     |   x2    ^      |
C||-3---2--2-^2-2-^2-2--5-5-5-5-5-5-----|-0-3-5-0-0-0--0-|                              
A||-3---2--2-^2-2-^2-2--5-5-6-6-5-5-----|-0-3-5-0-0-0--0-|
F||-3---2--2-^2-2-^2-2--5-5-5-5-7-7-----|-0-3-5-0-0-0--0-| x2
C||-3---2--2-^2-2-^2-2--5-5-5-5-5-5-----|-0-3-5-0-0-0--0-|
F||-3---2--2-^2-2-^2-2--5-5-5-5-5-5-----|-0-3-5-0-0-0--0-|
C||-3---2--2-^2-2-^2-2--5-5-5-5-5-5-----|----------------|
        ^song @ 1:12

  
C||--0-0--^0-0-^0---0-^0-0-^0-0------|
A||--0-0--^0-0-^0---0-^0-0-^0-0------|
F||--0-0--^0-0-^0---0-^0-0-^0-0------| x2
C||--0-0--^0-0-^0---3p-0-0-^0-0------|
F||--0-0--^0-0-^0---0-^0-3-^0-0------|
C||------------------------^0-3------|

                            ^     ^     |   x3    ^      |
C||-3---2--2-^2-2-^2-2--5-5-5-5-5-5-----|-0-3-5-0-0-0--0-|                              
A||-3---2--2-^2-2-^2-2--5-5-6-6-5-5-----|-0-3-5-0-0-0--0-|
F||-3---2--2-^2-2-^2-2--5-5-5-5-7-7-----|-0-3-5-0-0-0--0-| 
C||-3---2--2-^2-2-^2-2--5-5-5-5-5-5-----|-0-3-5-0-0-0--0-|
F||-3---2--2-^2-2-^2-2--5-5-5-5-5-5-----|-0-3-5-0-0-0--0-|
C||-3---2--2-^2-2-^2-2--5-5-5-5-5-5-----|----------------|


C||--0-0--^0-0-^0---0-^0-0-^0-0------|
A||--0-0--^0-0-^0---0-^0-0-^0-0------|
F||--0-0--^0-0-^0---0-^0-0-^0-0------| x2
C||--0-0--^0-0-^0---3p-0-0-^0-0------|
F||--0-0--^0-0-^0---0-^0-3-^0-0------|
C||------------------------^0-3------|

              ^     ^     |   x3    ^      |
C||-3-----5-5-5-5-5-5-----|-0-3-5-0-0-0--0-|                              
A||-3-----5-5-6-6-5-5-----|-0-3-5-0-0-0--0-|
F||-3-----5-5-5-5-7-7-----|-0-3-5-0-0-0--0-| 
C||-3-----5-5-5-5-5-5-----|-0-3-5-0-0-0--0-|
F||-3-----5-5-5-5-5-5-----|-0-3-5-0-0-0--0-|
C||-3-----5-5-5-5-5-5-----|----------------|

C||--0-0--^0-0-^0---0-^0-0-^0-0------|
A||--0-0--^0-0-^0---0-^0-0-^0-0------|
F||--0-0--^0-0-^0---0-^0-0-^0-0------| x2
C||--0-0--^0-0-^0---3p-0-0-^0-0------|
F||--0-0--^0-0-^0---0-^0-3-^0-0------|
C||------------------------^0-3------|

                            ^     ^     |   x2    ^      |
C||-3---2--2-^2-2-^2-2--5-5-5-5-5-5-----|-0-3-5-0-0-0--0-|                              
A||-3---2--2-^2-2-^2-2--5-5-6-6-5-5-----|-0-3-5-0-0-0--0-|
F||-3---2--2-^2-2-^2-2--5-5-5-5-7-7-----|-0-3-5-0-0-0--0-| x2
C||-3---2--2-^2-2-^2-2--5-5-5-5-5-5-----|-0-3-5-0-0-0--0-|
F||-3---2--2-^2-2-^2-2--5-5-5-5-5-5-----|-0-3-5-0-0-0--0-|
C||-3---2--2-^2-2-^2-2--5-5-5-5-5-5-----|----------------|


     |  x3  ^    ^    ^|  ^   ^    
C||--|9/12-12-12-12-0-0|--0-0-0--3-5-0-|
A||--|9/12-12-12-12-0-0|--0-0-0--3-5-0-|
F||--|9/12-12-12-12-0-0|--0-0-0--3-5-0-| x4  
C||--|9/12-12-12-12-0-0|--0-0-0--3-5-0-|
F||--|9/12-12-12-12-0-0|--0-0-0--3-5-0-|
C||--|9/12-12-12-12-0-0|--0-0-0--3-5-0-|

                            ^     ^     |   x2    ^      |
C||-3---2--2-^2-2-^2-2--5-5-5-5-5-5-----|-0-3-5-0-0-0--0-|                              
A||-3---2--2-^2-2-^2-2--5-5-6-6-5-5-----|-0-3-5-0-0-0--0-|
F||-3---2--2-^2-2-^2-2--5-5-5-5-7-7-----|-0-3-5-0-0-0--0-| x2
C||-3---2--2-^2-2-^2-2--5-5-5-5-5-5-----|-0-3-5-0-0-0--0-|
F||-3---2--2-^2-2-^2-2--5-5-5-5-5-5-----|-0-3-5-0-0-0--0-|
C||-3---2--2-^2-2-^2-2--5-5-5-5-5-5-----|----------------|


C||--<>12-----------------------------------0----|
A||--<>12---------------<>7-------8--------------|
F||--<>12---------------<>7------------0------0--|
C||--<>12---------------<>7----9----9-----9------|
F||--<>12---------------<>7----------------------|
C||--<>12---------------<>7----------------------|

C||--<>12--------------------------------0---|
A||--<>12---------------<>7-------8----------|
F||--<>12---------------<>7----------------0-|
C||--<>12---------------<>7----9----9--9-----|
F||--<>12---------------<>7------------------|
C||--<>12---------------<>7------------------|


C||---------^0---------^0---------^0--------------|
A||---------------^8---------^8--------^8---------|
F||-------------0----------0---------0-------0----|
C||-----7s9-----------9---------9---------7-------|
F||-----------------------------------------------|
C||-----------------------------------------------|

C||---------------------------------------------|
A||-------^3--------^3--------------------------|
F||--4p0-0----4p0-0----2p0-0-^0-----------------| x2
C||-----------------------------2-0-------------|
F||---------------------------------------------|
C||---------------------------------------------|

            ^
C||---0--0--0--0--|
A||---3--3--3--3--| Fast x5  Crescendo
F||---0--0--0--0--|
C||---0--0--0--0--|
F||---0--0--0--0--|
C||---0--0--0--0--|

            |  ^   ^   ^   ^   ^   ^  x2   |
C||---3--5--|0-0-0-0-0-0-0-0-0-0-0-0--3--5-|
A||---3--5--|0-0-0-0-0-0-0-0-0-0-0-0--3--5-|
F||---3--5--|0-0-0-0-0-0-0-0-0-0-0-0--3--5-|
C||---3--5--|0-0-0-0-0-0-0-0-0-0-0-0--3--5-|
F||---3--5--|0-0-0-0-0-0-0-0-0-0-0-0--3--5-|
C||----------------------------------------|

            ^     ^     ^     ^
C||---0--0--0--0--0--m--0--0--0--0-m-|
A||---0--0--0--0--0--m--0--0--0--0-m-|  xA few?
F||---0--0--0--0--0--m--0--0--0--0-m-|
C||---0--0--0--0--0--m--0--0--0--0-m-|
F||---0--0--0--0--0--m--0--0--0--0-m-|
C||---0--0--0--0--0--m--0--0--0--0-m-|


C||--0-0--^0-0-^0---0-^0-0-^0-0------|
A||--0-0--^0-0-^0---0-^0-0-^0-0------|
F||--0-0--^0-0-^0---0-^0-0-^0-0------| x4
C||--0-0--^0-0-^0---3p-0-0-^0-0------|
F||--0-0--^0-0-^0---0-^0-3-^0-0------|
C||------------------------^0-3------|

                            ^     ^     |   x3    ^      |
C||-3---2--2-^2-2-^2-2--5-5-5-5-5-5-----|-0-3-5-0-0-0--0-|                              
A||-3---2--2-^2-2-^2-2--5-5-6-6-5-5-----|-0-3-5-0-0-0--0-|
F||-3---2--2-^2-2-^2-2--5-5-5-5-7-7-----|-0-3-5-0-0-0--0-| x3
C||-3---2--2-^2-2-^2-2--5-5-5-5-5-5-----|-0-3-5-0-0-0--0-|
F||-3---2--2-^2-2-^2-2--5-5-5-5-5-5-----|-0-3-5-0-0-0--0-|
C||-3---2--2-^2-2-^2-2--5-5-5-5-5-5-----|----------------|

MTS

            
            
Suggest correction
Creating personal tab
Creating personal tab
You can edit any tab online and save it as your Personal.

You can edit, replace or remove any tab part or add personal notes – all changes will be seen only by you.

Personal tabs can be accessed anytime from any device, even offline.
Learn more »
comments
print report bad tab
3 comments total.
0 reply
paperbagheart 89 Jul 06, 2016 08:36 AM

C||-------------------------------0-0-^0--------|
A||-------^3-------^3--------3-3--3-3--3--------|
F||--4p0-0----4p0-0-----------0---0-0--0 -------|
C||--------------------0-0h2--------------------|
F||---------------------------------------------|
C||---------------------------------------------|

C||------------------------0--^0----0---|
A||-------^3---------------3---3----3---|
F||--4p0-0----4p0-0----2p0-0---0----4---|
C||-------------------------------2-----|
F||-------------------------------------|
C||-------------------------------------|

C||---------------^0----------0------0--|
A||----------3-------3-------^3-----^3--|
F||--2/4p0-0---4p0-------4p0----2p0-----|
C||-------------------------------------|
F||-------------------------------------|
C||-------------------------------------|

C||---------------------------0-----------|
A||---------------3-3-3-3-----3-----------| x2
F||--------0-^2-0-0-0-0-------0-----------|
C||--0h^2-----------------2p0-------------|
F||---------------------------------------|
C||---------------------------------------|

I think this is more accurate, I got my corrections from https://www.youtube.com/watch?v=cRGtsKOCh3c

0 reply
challenger666 10 Jul 26, 2017 05:17 PM

and dafuck 0h^2 means???? hammer with upstroke?? what???

guest
You may want to rate the tab now too:
select rating
Wanna post a correction for this tab? Suggest correction