Oops, an error
Loading. Please wait.

Celebration Day Tab

version 2
version 2

Whole song

Interactive

44,693 views 60 this week
8 commentsread comments
1 2 3 4 5
x 16
add to favorites
launch autoscroll
font size
0
reset
how to read this tab
guitar tuner
backing track
0:00
0:00
×
Best way to learn
"Celebration Day"
Autoscroll
slow
fast
+/-
esc
set tempo
stop
Author
-----------------------------------------------------------------------------
                       Led Zeppelin - Celebration Day
-----------------------------------------------------------------------------
                                                                                    
Transcribed by Victor Ochoa

Standard Tuning

[Intro]

E|6777777767777777|6777677767777888|899999999999999-|
B|5666666656666666|5666566656666777|788888888888888-|
G|6777777767777777|5666566656666777|899999999999999-|
D|----------------|----------------|----------------|
A|----------------|----------------|---------------0|
E|----------------|----------------|----------------|

E|------------------|------------------|----------999999|
B|------------------|------------------|----------888888|
G|------------------|------------------|----------999999|
D|------------------|------------------|----------------|
A|0-120010009707-053|0-120010009707-053|0-430-12--------|
E|------------------|------------------|----------------|

E|99---------------|----------999999|99---------------|
B|88---------------|----------888888|88---------------|
G|99---------------|----------999999|99---------------|
D|-----------------|----------------|-----------------|
A|----0-0010009003-|0-43-0-12-------|----0-0010009003-|
E|-----------------|----------------|-----------------|

[Riff 1]
                   (play this rapidly)
E| ----------------9--9--9--9--9-|9--9--------------- | 
B| ----------------8--8--8--8--8-|8--8--------------- |
G|o-----------2----9--9--9--9--9-|9--9---------------o|
D|o------------------------------|-------------------o|
A| --0-43--0---------------------|12-12-0-0010009003- |
E| ------------------------------|------------------- |

[Riff 2]
E|----------------|----------------|----------------|----------------|
B|----------------|----------------|----------------|----------------|
G|----------------|----------------|----------------|----------------|
D|8---8-----------|----------------|----------------|----------------|
A|10--10--------5-|--5-5--55-5-7-8-|--8-10888-----3-|--3-3-333-333-33|
E|8---8--80-1-2-3-|--3-3--33-3-5-6-|--6-6---6---0-1-|--1-1-111-111-11|

E|----------------|----------------|----------------|---------------------|
B|----------------|----------------|----------------|--8--8--8---77--7-7--|
G|----------------|----------------|---------------9|1010-10-10-899--9-9--|
D|8---------------|------------6---|----------------|---------------------|
A|10--12--------5-|--5-5-555-5-7-8-|--8-10888-8-----|---------------------|
E|8---8--80-1-2-3-|--3-3-333-3-5-6-|--6-6-666-6-0---|---------------------|

Song Progression:

[Intro]

With [Riff 1]:

Her face is cracked from smiling,
all the fears that she's been hiding,
and it seems that pretty soon
evr'ybody's gonna know.

And her voice is sore from shouting,
cheering winners who are losing,
and she wonders if their days are few
and soon they'll have to go.

[Riff 1] once more, then

With [Riff 2]: (chords shown here for reference)

C            G
My, my, my, I'm so happy,
Bb                F
I'm gonna join the band.
 C                     G
We are gonna dance and sing in celebration,
 Bb                   F  E
we are in the promised land.

With [Riff 1]:

She hears them talk of new ways
to protect the home she lives in,
Then she wonders what it's all about
when they break down the door.
Her name is Brown or White or Black;
you know her very well.
You hear her cries of mercy
as the winners toll the bell.

With [Riff 2]:

My, my, my, I'm so happy,
I'm gonna join the band.
We are gonna sing and dance in celebration,
we are in the promised land.

[Solo]

E|------------------------------------|-----------------------------------|
B|-15b17--15b17--15b17r15p13-15b17-15-|-(15)-----------13-15p13---15p13---|
G|------------------------------------|-----12---12-14----------14-----14-|
D|------------------------------------|-----------------------------------|
A|------------------------------------|-----------------------------------|
E|------------------------------------|-----------------------------------|

E|------------15------------|-------------8p5----------|
B|-13---15-13----15b17-15b17|-(17)-15b17-----8p5-8p5---|
G|--------------------------|-----------------------7p5|
D|--------------------------|--------------------------|
A|--------------------------|--------------------------|
E|--------------------------|--------------------------|

E|----------------------|------------------------|----------------8|
B|----------------------|------------------------|-----------------|
G|-7b9-7b9-7b9r7p5-7b9r7|-(17)------5-7p5-5-7p5--|-5--7-5--5--8h9--|
D|----------------------|-----5--5h7-----7-----7-|-----------------|
A|----------------------|------------------------|-----------------|
E|----------------------|------------------------|-----------------|

E|-------13----13--------12----12-|
B|--------------------------------|
G|-12/14----14-----12/13----13----|
D|--------------------------------|
A|--------------------------------|
E|--------------------------------|

With [Riff 1]:

There is a train that leaves the station
heading for your destination,
But the price you pay to nowhere
has increased a dollar more. Yes, it has!
And if you walk you're gonna get there
although it takes a little longer,
And when you see it in the distance
you will wring your hands and moan.

Repeat [Riff 1] until fade out



************************************

| (n)  Ghost note
| p    Pull-off
| r    Release
| b    Bend
| h    Hammer-on
| /    Slide up

************************************
Suggest correction
comments
print report bad tab
8 comments total. Showing first comments.
0 reply
history? 10 Dec 04, 2004 07:00 PM

quit taking credit for other people's work.

http://led-zeppelin.org/tablature/files/t-3-3-g.html

0 reply
59lp 10 Jun 13, 2005 08:00 PM

good tab

+2 reply
HotChowder 10 May 28, 2007 09:49 PM

yeah put some inflection symbols like p and s and h and /

guest
You may want to rate the tab now too:
select rating
Wanna post a correction for this tab? Suggest correction