Oops, an error
Loading. Please wait.

Communication Breakdown Tab

version 3
version 3
110,451 views 243 this week
15 commentsread comments
1 2 3 4 5
accurate
x 33
add to favorites
launch autoscroll
font size
0
reset
how to read this tab
guitar tuner
Autoscroll
slow
fast
+/-
esc
set tempo
stop
Help us to improve Ultimate-Guitar.com Take our survey!
×
Author
-----------------------------------------------------------------------------
                Led Zeppelin - Commmunication Breakdown
-----------------------------------------------------------------------------
                                                                                    
Transcribed by Victor Ochoa

Standard Tuning

e|----------------|----------------|----------------|----------------|
B|----------------|--7-----5---7---|----------------|--7-----5---7---|
G|----------------|--7-----6---7---|----------------|--7-----6---7---|
D|----------------|--7-----7---7---|----------------|--7-----7---7---|
A|----------------|--5-----7---5---|----------------|--5-----7---5---|
E|0-0-0-0-0-0-0-0-|0-------5-------|0-0-0-0-0-0-0-0-|0-------5-------|(x6)

e|--------------5-|--------------5-|--------------5-|----------------|
B|--------------5-|--------------5-|--------------5-|----------------|
G|--------------6-|--------------6-|--------------6-|----------------|
D|--------------7-|--------------7-|--------------7-|----------------|
A|7-7-9-7-7-9---7-|--7-9-7-7-9---7-|---7-9-7-7-9--7-|--7-9-7-7-7-9-7-|
E|5-5-5-5-5-5---5-|--5-5-5-5-5---5-|---5-5-5-5-5--5-|--5-5-5-5-5-5-5-|

e|----------------7-|----------------7-|----------------7-|------------------|
B|----------------7-|----------------7-|----------------7-|------------------|
G|----------------8-|----------------8-|----------------8-|------------------|
D|----------------7-|----------------7-|----------------7-|------------------|
A|9-9-11-9-9-9-11-9-|--9-11-9-9-9-11-9-|--9-11-9-9-9-11-9-|--9-11-9-9-9-11---|
E|7-7-7--7-7-7-7--7-|--7-7--7-7-7-7--7-|--7-7--7-7-7-7--7-|--7-7--7-7-7-7--0-|

e|----------------|----------------|----------------|----------------|
B|----------------|--7-----5---7---|----------------|--7-----5---7---|
G|----------------|--7-----6---7---|----------------|--7-----6---7---|
D|----------------|--7-----7---7---|----------------|--7-----7---7---|
A|----------------|--5-----7---5---|----------------|--5-----7---5---|
E|0-0-0-0-0-0-0-0-|0-------5-------|0-0-0-0-0-0-0-0-|0-------5-------|(x5)

e|--------------5-|--------------5-|--------------5-|----------------|
B|--------------5-|--------------5-|--------------5-|----------------|
G|--------------6-|--------------6-|--------------6-|----------------|
D|--------------7-|--------------7-|--------------7-|----------------|
A|7-7-9-7-7-9---7-|--7-9-7-7-9---7-|---7-9-7-7-9--7-|--7-9-7-7-7-9-7-|
E|5-5-5-5-5-5---5-|--5-5-5-5-5---5-|---5-5-5-5-5--5-|--5-5-5-5-5-5-5-|

e|----------------7-|----------------7-|----------------7-|--7----------------|
B|----------------7-|----------------7-|----------------7-|--7----------------|
G|----------------8-|----------------8-|----------------8-|--8----------------|
D|----------------7-|----------------7-|----------------7-|--7----------------|
A|9-9-11-9-9-9-11-9-|--9-11-9-9-9-11-9-|--9-11-9-9-9-11-9-|--9-11-9-9------5-7|
E|7-7-7--7-7-7-7--7-|--7-7--7-7-7-7--7-|--7-7--7-7-7-7--7-|--7-7--7-7------5-7|

                                     Rhythm part under Guitar Solo
e|----------------|----------------||----------------|----------------|
B|9---------------|----------------||----------------|--7-----5---7---|
G|9---------------|----------------||9-9-9-9-9-9-9-9-|--7-----6---7---|
D|9---------------|----------------||9-9-9-9-9-9-9-9-|--7-----7---7---|
A|7---------------|----------------||7-7-7-7-7-7-7-7-|--5-----7---5---|
E|7---------------|----------------||0-0-0-0-0-0-0-0-|--------5-------|(x7)


[Rhythm part under Outro Guitar part]

e|--------------5-|--------------5-|--------------5-|----------------|
B|--------------5-|--------------5-|--------------5-|----------------|
G|--------------6-|--------------6-|--------------6-|----------------|
D|--------------7-|--------------7-|--------------7-|----------------|
A|7-7-9-7-7-9---7-|--7-9-7-7-9---7-|---7-9-7-7-9--7-|--7-9-7-7-7-9-7-|
E|5-5-5-5-5-5---5-|--5-5-5-5-5---5-|---5-5-5-5-5--5-|--5-5-5-5-5-5-5-|


e|----------------7-|----------------7-|----------------7-|------------------|
B|----------------7-|----------------7-|----------------7-|------------------|
G|----------------8-|----------------8-|----------------8-|------------------|
D|----------------7-|----------------7-|----------------7-|------------------|
A|9-9-11-9-9-9-11-9-|--9-11-9-9-9-11-9-|--9-11-9-9-9-11-9-|--9-11-9-9-9-11---|
E|7-7-7--7-7-7-7--7-|--7-7--7-7-7-7--7-|--7-7--7-7-7-7--7-|--7-7--7-7-7-7--0-|

e|----------------|----------------|----------------|----------------|
B|----------------|--7-----5---7---|----------------|--7-----5---7---|
G|----------------|--7-----6---7---|----------------|--7-----6---7---|
D|----------------|--7-----7---7---|----------------|--7-----7---7---|(x6)
A|----------------|--5-----7---5---|----------------|--5-----7---5---|then
E|0-0-0-0-0-0-0-0-|0-------5-------|0-0-0-0-0-0-0-0-|0-------5-------|fade


[Solo]

e|---12----------------14---------------------------------------12--------------|
B|12----15-12-12----------12-15-12-12-12-12--12--15-12-12----12----15-12-12-----|
G|16-------------14-16------------------------------------14----------------14--|
D|------------------------------------------------------------------------------|
A|------------------------------------------------------------------------------|
E|------------------------------------------------------------------------------|

e|----------------------------12--------12--------------------------------------|
B|12-12-15----12-12-15-12-12------12---12---------------------------------12----|
G|---------14-------------------------------14-12----14-13----------12-15-------|
D|------------------------------------------------14-------14-12-14-------------|
A|------------------------------------------------------------------------------|
E|------------------------------------------------------------------------------|

                                                    /---3--\/---3---\    
E|12----12----12---12---17---15---12----12----------12--------------------------|
B|---15----15------------------------15----------12-----------------------------|
G|-----------------------------------------14-16---------16-14-12----14-12------|
D|----------------------------------------------------------------14------------|
A|------------------------------------------------------------------------------|
E|------------------------------------------------------------------------------|

e|-----9----9----9--------------------------------------------------------------|
B|---9-9-12-9-12-9------------------------------9----------------10-------------|
G|-----------------12-11-9-11-11-9----9-9-11-12---11-9----11-9-9----------------|
D|12-------------------------------11------------------11-----------------------|
A|------------------------------------------------------------------------------|
E|------------------------------------------------------------------------------|

e|---10------10-------------------------------9-9-7-7-0-----------------|
B|12-12---12----12-10-8---10-8----------------9-9-7-7-0-----------------|
G|----------------------9------9-8-9----------9-9-7-7-0-----------------|
D|----------------------------------------------------------------------|
A|----------------------------------------------------------------------|
E|-----------------------------------12---0-----------------------------|


[Outro Guitar Solo]

e|-----------------------------------------------------------------------|
B|9-9-9-10-10-10-11-11-12-12-13-13-14-14-15-15-16-16-17-17-20-17-17-17-17|
G|-----------------------------------------------------------------------|
D|-----------------------------------------------------------------------|
A|-----------------------------------------------------------------------|
E|-----------------------------------------------------------------------|

e|--------------------------19-22-------19-18-17-------------------------|
B|17-17-22---22-20-17----17----------------------20-19-17----------------|
G|--------------------19------------------------------------18-17-21-----|
D|-----------------------------------------------------------------------|
A|-----------------------------------------------------------------------|
E|-----------------------------------------------------------------------|

e|---19----------------------24---24-------------------------------------|
B|------19-17----17-17-19-17---------------------------------------------|
G|------------18---------------------------------------------------------|
D|-----------------------------------------------------------------------|
A|-----------------------------------------------------------------------|
E|-----------------------------------------------------------------------|


[Second Outro Solo]                       

(02:18)                                            /---3---\
e|------------------------------------------------------------------------------|
B|12-----12---12---12---------14-12----------------------20-------------20------|
G|-------------------14-12----14-12----------12----19-21----21-19-19-21----21-19|
D|-------------------------14-------14-12-14-0----------------------------------|
A|------------------------------------------------------------------------------|
E|------------------------------------------------------------------------------|

e|0-15-17--------------------------------------------------------------|
B|------------------24-----------22---24-23-20-22-23--21-22------------|
G|---------------------------------------------------------------------|
D|---------------------------------------------------------------------|
A|---------------------------------------------------------------------|
E|---------------------------------------------------------------------|

              /--3--\    /--3--\     fade out
e|-----17---------------------------------------------|                      
B|--20-------17-20-17----17-20-17----17---------------|                      
G|--------19----------19----------19------------------|
D|----------------------------------------------------|
A|----------------------------------------------------|
E|----------------------------------------------------|

************************************

| /  Slide up

************************************
Suggest correction
comments
print report bad tab
15 comments total. Showing first comments.
+1 reply
StormBringer 30 wrote on July 8 2004, 12:00 am

I really don't understand the first solo...

+2 reply
Captain Beyond 10 wrote on February 28 2005, 12:00 am

Great song, learned this because I love it and Led Zeppelin, god I love Zeppelin.

+1 reply
Wiegraf 50 wrote on May 19 2005, 12:00 am

^ Don't we all?

guest
You may want to rate the tab now too:
select rating
Wanna post a correction for this tab? Suggest correction