Oops, an error
Loading. Please wait.

Custard Pie Tab

version 1
version 1

Whole song

Interactive

26,780 views 39 this week
no commentswrite comment
1 2 3 4 5
x 5
add to favorites
launch autoscroll
font size
0
reset
how to read this tab
guitar tuner
Autoscroll
slow
fast
+/-
esc
set tempo
stop
Help us to improve Ultimate-Guitar.com Take our survey!
×
A bit of "Custard Pie"

e|------------------|--------------------|
B|------------------|--------------------|
G|------------------|---2---2------------|
D|---2-2-2-4-4-4-5--|---2---2------------|
A|---0-0-0-0-0-0-0--|---0---0------------|   Repeat several times
E|------------------|-----3--------------|   and then:

e|------------------|---------------|-------------------|
B|------------------|---------------|-------------------|
G|--7---------------|--7-6-5--------|-5-4-3-------------|
D|--7---------------|--7-6-5--------|-5-4-3-------------|
A|--5---------------|--5-4-3--------|-3-2-1-------------|
E|------------------|---------------|-------------------|


        Then repeat the first some more(listen to the song for clarification)

-------------
Another verse:

                    Custard Pie - Led Zeppelin


  A

e|--------------------5--3--5------------------------------------------------|
B|--2-2-2--2-2--2-----5--3--5------------------------------------------------|
G|--2-2-2--2-2--2-----2--2--2------------------------------------------------|
D|--2-2-2--4-4--5-----2--2--2------------------------------------------------|
A|--0-0-0--0-0--0------------------------------------------------------------|
E|---------------------------------------------------------------------------|

    D       D C#C   C  B A#

e|---------------------------------------------------------------------------|
B|---------------------------------------------------------------------------|
G|----7-------7-6-5----5-4-3-------------------------------------------------|
D|----7-------7-6-5----5-4-3-------------------------------------------------|
A|----5-------5-4-3----3-2-1-------------------------------------------------|
E|---------------------------------------------------------------------------|


===========================================================================

  A

e|--------------------5--3--5------------------------------------------------|
B|--2-2-2--2-2--2-----5--3--5------------------------------------------------|
G|--2-2-2--2-2--2-----2--2--2------------------------------------------------|
D|--2-2-2--4-4--5-----2--2--2------------------------------------------------|
A|--0-0-0--0-0--0------------------------------------------------------------|
E|---------------------------------------------------------------------------|

    E      Gsus       F  G
e|--0------3-----------------------------------------------------------------|
B|--0------3-----------------------------------------------------------------|
G|--1------5-----------------------------------------------------------------|
D|--2------3----------3---5--------------------------------------------------|
A|--2------5----------3---5--------------------------------------------------|
E|--0------3----------1---3--------------------------------------------------|
Suggest correction
comments
print report bad tab
guest
You may want to rate the tab now too:
select rating
Wanna post a correction for this tab? Suggest correction