Oops, an error
Loading. Please wait.

Dazed And Confused Tab

version 1
version 1

Whole song

Interactive

50,213 views 39 this week
4 commentsread comments
1 2 3 4 5
x 16
add to favorites
launch autoscroll
font size
0
reset
how to read this tab
guitar tuner
×
Best way to learn
"Dazed And Confused"
Autoscroll
slow
fast
+/-
esc
set tempo
stop
Dazed amd Confused- Led Zeppelin
Tabbed by: Twisted Iggy
Email: psycorocker88@hotmail.com
Tuning: Standard 
                         
[Intro]
                          + +       + +   +  +   + + (harmonics)
e|-------------------------12---------5--------------------------------------|
B|-----------------------12---------5-------12-----5-------------------------|
G|----------------------------------------12-----5---------------------------|
D|---------------------------------------------------------------------------|
A|---------------------------------------------------------------------------|
E|-0h3--2--1--00----------(bass fill)----------------------------------------|

[Part 1]
e|---------------------------------------------------------------------------|
B|---------------------------------------------------------------------------|
G|---------------------------------------------------------------------------|
D|---2---12--11--10--9-9--2--------------------------------------------------|
A|---2---10--9---8---7-7--2--12--11--10--9-9---------------------------------|
E|---0--------------------0--10--9---8---7-7---------------------------------|(x2)

[Part 2]                                                              [Ending]
e|--------------------------------------------------------------------|-------|
B|--------------------------------------------------------------------|-------|
G|--------------------------------------------------------------------|-------|
D|------------7h9-----------------7h9----------------7h9-------------2|-2-----|
A|---9-9--7h9-----7h9--9-9-9--7h9-----7h9-9-9-9--7h9-----7h9--9-9-9--2|-2-----|
E|---7-7---------------7-7-7--------------7-7-7---------------7-7-7--0|-0-----|

[Order]

Intro
Part 1
Part 2
Part 1
pm: Part 1
Part 2
Part 1
Part 2
Solo
Part 2
Part 1 
Part 2
Ending : Worth the ending just strum it as many times as you want, but on
         the last strum let it ring and fade out on its own.

************************************

| h  Hammer-on
| +  harmonics

************************************
Suggest correction
comments
print report bad tab
4 comments total. Showing first comments.
0 reply
metalheadblues 196 Jul 03, 2009 04:17 PM

oooh its harmonics nice

0 reply
ShayQ7 10 Jan 03, 2014 03:43 PM

Press down on the nutt of that string to give a vibrato that paige used. (if you don't have a whammy bar.)

0 reply
maaikeroeleve 10 Sep 29, 2014 02:35 AM

Wil give this a try.....
However, that is off course without the bow solo.
What is a good altertative for that bow solo, what scale to use for improvising a nice solo?

All tips are welcome,
Maaike

guest
You may want to rate the tab now too:
select rating
Wanna post a correction for this tab? Suggest correction