Oops, an error
Loading. Please wait.
We have an official Dazed And Confused tab made by UG professional guitarists. Check out the tab »
×

Dazed And Confused Tab

version 2
version 2

Whole song

93,194 views 33 this week
7 commentsread comments
1 2 3 4 5
x 15
add to favorites
×
Save as Personal and add changes to this tab that will be seen only by you. Learn more ›
×
You can save this tab as Personal to edit and correct it or add notes. All changes will be seen only by you. Learn more »
save as personal
new!
launch autoscroll
font size
0
reset
how to read this tab
guitar tuner
backing track
0:00
0:00
Autoscroll
slow
fast
+/-
esc
set tempo
stop
Author
Led zeppelin - Dazed and confused


[Intro]

e|--------------------------------------|
B|--------------------------------------|
G|--------------------------------------|
D|---------5-4-3-2----------------------|
A|-------------------------5-4-3-2-1----|
E|--0----------------0------------------|

e|---------------------------------------------------------------------------|
B|---------------------------------------------------------------------------|
G|---------------------------------------------------------------------------|
D|---2---12--11--10--9-9--2--------------------------------------------------|
A|---2---10--9---8---7-7--2--12--11--10--9-9---------------------------------|
E|---0--------------------0--10--9---8---7-7---------------------------------|(x2)

e|--------------------------------------------------------------------|-------|
B|--------------------------------------------------------------------|-------|
G|--------------------------------------------------------------------|-------|
D|------------7h9-----------------7h9----------------7h9-------------2|-2-----|
A|---9-9--7h9-----7h9--9-9-9--7h9-----7h9-9-9-9--7h9-----7h9--9-9-9--2|-2-----|
E|---7-7---------------7-7-7--------------7-7-7---------------7-7-7--0|-0-----|


[Solo]

e|--------------------------------------------------|
B|--------------------------------------------------|
G|--------------12------------------------12-14-12--| this is played twice
D|--------12-14----14-12------------12-14-----------|
A|--12-14----------------14---12-14-----------------|
E|--------------------------------------------------|

Then
e|--------------------------------------------------|
B|--15--14--12--10--8--------7-------5--------------|
G|------------------10^(12)r-9^(10)r-7^(9)r---------|
D|--------------------------------------------------|
A|--------------------------------------------------|
E|--------------------------------------------------|


e|--------------------------------------------------|
B|---8--------7-------3------2----------------------|
G|---10^(12)r-9^(10)r-5^(7)r-4^(6)------------------|
D|--------------------------------------------------|
A|--------------------------------------------------|
E|--------------------------------------------------|

e|--------------------------------------------------|
B|-------12h15-------12h15-------12h15-------12h15--|
G|--12h14------12h14-------12h14-------12h14--------|
D|--------------------------------------------------|
A|--------------------------------------------------|
E|--------------------------------------------------|

e|--15p14p12-15p14p12-15p14p12-15p14p12-15p14p12----|
B|--------------------------------------------------|
G|--------------------------------------------------|
D|--------------------------------------------------|
A|--------------------------------------------------|
E|--------------------------------------------------|


e|-12h15^(17)r-15-12h15p12----------------------------------------------------|
B|------------------------15^(17)r-15-12h15p12--------------------------------|
G|--------------------------------------------14^(16)r-14-12h14p12------------|
D|----------------------------------------------------------------11-12-14-12-|
A|----------------------------------------------------------------------------|
E|----------------------------------------------------------------------------|

e|------------------------------------------------------------------------------|
B|------------------------------------------------------------------------------|
G|------------------------------------------------------------------------------|
D|14-14^(16)-14-12-11-12--------------------------------------------------------|
A|----------------------14p12p10-12-12^(14)r10-12-12^(14)r10-12-10-12-10-12^(14)|
E|------------------------------------------------------------------------------|

e|---15p14p12-15p14p12-15p14p12-15p14p12-15p14p12-15p14p12-15p14p12-15-15^(17)-|
B|-----------------------------------------------------------------------------|
G|-----------------------------------------------------------------------------|
D|-----------------------------------------------------------------------------|
A|-10--------------------------------------------------------------------------|
E|-----------------------------------------------------------------------------|

e|--15^(17)r-15-12-10-12---------------------------------------------------|
B|----------------------12^(14)r-10-8-7h8h10-8-7---------------7-----------|
G|-----------------------------------------------9p7-------7-9-------------|
D|---------------------------------------------------9-7-9----------7-5----|
A|---------------------------------------------------------------5-7-------|
E|-------------------------------------------------------------------------|

e|--15-15-15-15h12-----12-12--|
B|----------------15----------|
G|----------------------------|
D|----------------------------|
A|----------------------------|
E|----------------------------|

e|-19^(21)r-17-15-17---------15h17-------15h17-------15h17-------15h17-------|
B|------------------17h15----------15h17-------15h17-------15h17-------15h17-|
G|---------------------------------------------------------------------------|
D|---------------------------------------------------------------------------|
A|---------------------------------------------------------------------------|
E|---------------------------------------------------------------------------|

e|--15h17-------15h17-------15--17--15--17--15--17-----|
B|--------15h17-------15h17----------------------------|
G|-----------------------------------------------------|
D|-----------------------------------------------------|
A|-----------------------------------------------------|
E|-----------------------------------------------------|

e|--19----19-------21-------21-------19----15----12----5---3------------|
B|-----17----17-17----17-17----17-17----17----15----8----5---3--2^(3)-0-|
G|----------------------------------------------------------------------|
D|----------------------------------------------------------------------|
A|----------------------------------------------------------------------|
E|----------------------------------------------------------------------|


e|----------------------------------------------------------------------|
B|----------------------------------------------------------------------|
G|-2p0h2--2p0h2--2p0h2--2p0h2--2-4-2-4--4p2p0---------------------------|
D|---------------------------------------------2p0----------------------|
A|--------------------------------------------------2p0-----------------|
E|------------------------------------------------------3p0-------------|

Arghh!

ok now just after the solo this happens

Part 7.

Play (x3)

e|--------------------|
B|--9--7--5----9--12--|
G|--9--7--6----9--12--|
D|--9--7--7----9--12--|
A|--7--5--7----7--10--|
E|--------5-----------|



************************************

| h  Hammer-on
| p  Pull-off
| r  release
| ^  bend 

************************************
Suggest correction
comments
print report bad tab
7 comments total. Showing first comments.
0 reply
lilmonkeyman134 20 Apr 27, 2004 08:00 PM

http://www.actiontab.com/view_actiontab.html?id=34

0 reply
Gibson808 20 May 12, 2004 08:00 PM

Sorry but it's nothing like the way Jimmy plays it...it should have 'above the nut' bends on the harmonics and solo..

0 reply
Snoops 10 Feb 02, 2005 07:00 PM

no ones perfect but you still did an excellent job on this tab. congratulations it helped me

guest
You may want to rate the tab now too:
select rating
Wanna post a correction for this tab? Suggest correction