Oops, an error
Loading. Please wait.
We have an official Dazed And Confused tab made by UG professional guitarists. Check out the tab »
×

Dazed And Confused tab

367 views 12 this week
6 commentsread comments
1 2 3 4 5
2 more votes to show rating
add to favorites
×
Save as Personal and add changes to this tab that will be seen only by you. Learn more ›
×
You can save this tab as Personal to edit and correct it or add notes. All changes will be seen only by you. Learn more »
launch autoscroll
font size
0
reset
how to read this tab
guitar tuner
backing track
0:00
0:00
edit
Autoscroll
slow
fast
+/-
esc
set tempo
stop
Author
About this tab version
It includes the guitar as well as the bass parts. Was this info helpful? Yes No
[Intro]

Bass

G-------------------|
D-------------------|
A--10-9-8-7-5-4-3-2-|
E-0--------0--------|


Use heavy WAH
                               Bend behind neck
e|---12HA------------5HA--------------------------------|
B|-12HA-------------5HA---------------------------------|
G|-----------------------------12HA-12B14-12R-12B14-12R-|
D|------------------------------------------------------|
A|------------------------------------------------------|
E|------------------------------------------------------|

Bass 

G-------------------|
D-------------------|
A--10-9-8-7-5-4-3-2-|
E-0--------0--------|



Guitar

e|---12HA-----------------5HA-------------12HA-|
B|-12HA------------------5HA-5HA----------12HA-|
G|------------------------------5HA---12HA-----|
D|---------------------------------------------|
A|---------------------------------------------|
E|---------------------------------------------|


Bass 

G-------------------|
D-------------------|
A--10-9-8-7-5-4-3-2-|
E-0--------0--------|


Guitar

e|---12HA-----------------5HA----------------12HA---|
B|-12HA------------------5HA---------------12HA-----|
G|--------------------------------------12HA--------|
D|--------------------------------------------------|
A|--------------------------------------------------|
E|--------------------------------------------------|

Bass 

G-------------------|
D-------------------|
A--10-9-8-7-5-4-3-2-|
E-0--------0--------|



[Verse]

 Guitar 1
e|-------------------------|
B|-------------------------|
G|-------------------------|
D|-------------------------|
A|--9B-9R-7B-7R-4B-4R-2B-2R|
E|-0-----------0-----------| x 3

Bass 

G-------------------|
D-------------------|
A--10-9-8-7-5-4-3-2-|
E-0--------0--------| X 3



Guitar 2 in unison with guitar

e|--14B-14R-12B-12R------------------|
B|------------------14B-14R-12B-12R--|
G|-----------------------------------|
D|-----------------------------------|
A|-----------------------------------|
E|-0---------------0-----------------| x 3


[Chorus]

Guitar

e|------------------|
B|------------------|
G|-----------2-4----|
D|-4-4-4-2-4----2-4-|
A|-2-2-2------------|
E|------------------| X3

Bass

G---------2-4------|
D------2-4---2-4---|
A-2-2-2------------|
E------------------| x 3


[Verse]

Guitar 1

e|---------------------------|
B|---------------------------|
G|---------------------------|
D|---------------------------|
A|-2-9B-9R-7B-7R-4B-4R-2B-2R-|
E|-0------------0------------| x 3

Bass 

G-------------------|
D-------------------|
A--10-9-8-7-5-4-3-2-|
E-0--------0--------| x 3


Guitar 2

e|--14B-14R-12B-12R------------------|
B|------------------14B-14R-12B-12R--|
G|-----------------------------------|
D|-----------------------------------|
A|-----------------------------------|
E|-0---------------0-----------------| x 3


[Chorus]

e|------------------|
B|------------------|
G|-----------2-4----|
D|-4-4-4-2-4----2-4-|
A|-2-2-2------------|
E|------------------| X3


Bass

G---------2-4------|
D------2-4---2-4---|
A-2-2-2------------|
E------------------| x 3


[Interlude]

Guitar 

e|-------------------------|
B|-------------------------|
G|-------------------------|
D|-------------------------|
A|-9-9-9-9-7-----5-5-5-5-2-|
E|-7-7-7-7-5-----3-3-3-3-0-|

Bass

G------------------------|
D------------------------|
A------------------------|
E-7-7-7-7-5----3-3-3-3-0-| x 3


Use volume swells

Guitar

e|-----------------------------------------------------|
B|-----------------------------------------------------|
G|-----------------------------------------------------|
D|-----------------------------------------------------|
A|-----------------------------------------------------|
E|-5/0------5/0------5/0----5/0----7/10----7/10----7/10|

Bass

G---------------------|
D---------------------|
A-7-7-7-5---5-5-5-5-7-|  
E---------------------| x 3

Guitar

e|-----------------|
B|-----------------|
G|-----------------|
D|-----------------|
A|-----------------|
E|-12/-14/-12/-10/-|

From this part on Jimmy uses a violin bow and just messes around with the notes you did
Volume swells with until the solo starts you can just use a guitar slide if you don't have one

[PRE-SOLO]

Bass before guitar enters in

G----------------------------|
D-------5-7-5----------5-7-5-|
A----5-7-----7------5-7------|
E-5-7------------5-7---------|

Guitar

e|-------------------------------------------|
B|-------------------------------------------|
G|-----------12-14-12---------------12-14-12-|
D|------12-14--------14--------12-14---------|
A|-12-14------------------12-14--------------|
E|-------------------------------------------| x 2

Bass 

G----------------------------|
D-------5-7-5----------5-7-5-|
A----5-7-----7------5-7------|
E-5-7------------5-7---------| 

e|--------------------------------------------|
B|-15--14--12--10--12--10---8--7--8---7--3--2-|
G|-17B-16B-14B-12B-14B-12B-10B-9B-10B-9B-5B-4B|
D|--------------------------------------------|
A|--------------------------------------------|
E|--------------------------------------------|


[Solo]

I haven't Figured out the solo yet but I'll let you improvise it

[PRE-VERSE]

Guitar

e|-----------------|
B|-----------------|
G|-----------------|
D|-9--7----9----12-|
A|-7--5-7--7----10-|
E|------5----------| X 3

Bass

G------------|
D------------|
A-7-5--7--10-|
E----5-------| x 3

e|------------------|
B|------------------|
G|-----------2-4----|
D|-4-4-4-2-4----2-4-|
A|-2-2-2------------|
E|------------------| X3


[Verse]

e|---------------------------|
B|---------------------------|
G|---------------------------|
D|---------------------------|
A|-2-9B-9R-7B-7R-4B-4R-2B-2R-|
E|-0------------0------------| x 3


[Chorus]

e|------------------|
B|------------------|
G|-----------2-4----|
D|-4-4-4-2-4----2-4-|
A|-2-2-2------------|
E|------------------| X3

G---------2-4------|
D------2-4---2-4---|
A-2-2-2------------|
E------------------| x 3


[Verse]

e|---------------------------|
B|---------------------------|
G|---------------------------|
D|---------------------------|
A|-2-9B-9R-7B-7R-4B-4R-2B-2R-|
E|-0------------0------------|

G-------------------|
D-------------------|
A--10-9-8-7-5-4-3-2-|
E-0--------0--------|

Guitar

e|-----------------------------------------------------|
B|-----------------------------------------------------|
G|-----------------------------------------------------|
D|-----------------------------------------------------|
A|--9B-9R-7B-7R-B-7R-B-7R-4B-4R-2B-2R-2B-2R-2B-2R-2B-2R|
E|-0-----------0---------------------------------------| x 3

Bass

G-------------------|
D-------------------|
A--10-9-8-7-5-4-3-2-|
E-0--------0--------| x 3


[Chorus]

Guitar

e|------------------|
B|------------------|
G|-----------2-4----|
D|-4-4-4-2-4----2-4-|
A|-2-2-2------------|
E|------------------| X3

Bass

G---------2-4------|
D------2-4---2-4---|
A-2-2-2------------|
E------------------| x 3


[Outro]

Guitar

e|-------------------------|
B|-------------------------|
G|-------------------------|
D|-------------------------|
A|-9-9-9-9-7--7-7-7-7-9----|
E|-7-7-7-7-5--5-5-5-5-7----|

Bass

G------------------------|
D------------------------|
A------------------------|
E-7-7-7-7-5----3-3-3-3-0-| x 3

Guitar

e|-----------------------|
B|-----------------------|
G|-9-9-9-9-7--7-7-7-7-9--|
D|-0-0-0-0-0--0-0-0-0-0--|
A|-7-7-7-7-5--5-5-5-5-7--|
E|-----------------------| X 4

Bass

G------------|
D------------|
A-7-5--7--10-|
E----5-------| x 4

Guitar

e|----------------------|
B|----------------------|
G|----------------7P6P5-|
D|-0PM-0PM-0PM-0PM------|
A|----------------------|
E|----------------------| X 4


Bass

G------------|
D------------|
A-7-5--7--10-|
E----5-------| x 4

e|----------------------------------|
B|----------------------------------|
G|----------------------------------|
D|-7-7-7-7-7--7-7-7-7-7--7-7-7-7-7--|
A|-5-5-5-5-5--5-5-5-5-5--5-5-5-5-5--|
E|----------------------------------|

Bass

G----------------------------------|
D----------------------------------|
A-5-5-5-5-5--5-5-5-5-5--5-5-5-5-5--|
E----------------------------------|

Guitar

e|---------------|
B|---------------|
G|---------------|
D|-7-7-7-7-/9----|
A|-5-5-5-5-/7----|
E|----------0----| Hold note until fade

Bass

G-----------|
D-----------|
A-5-5-5-5-7-|
E-----------|





************************************
 
B bend           |
V Vibrato        |
H hammer on      |
P Pull of        |
/ Slide          |
HA Harmonic      |
P Pinch harmonic |
R release bend   |
PM Palm mute     | 

************************************

            
            
Suggest correction
Creating personal tab
Creating personal tab
You can edit any tab online and save it as your Personal.

You can edit, replace or remove any tab part or add personal notes – all changes will be seen only by you.

Personal tabs can be accessed anytime from any device, even offline.
Learn more »
Give kudos to tab author, rate the tab!
1 2 3 4 5
comments
print report bad tab
6 comments total. Showing first comments.
0 reply
jplandry1 61 Jul 22, 2016 07:22 AM

Way off, sorry...the first two notes are correct and then it goes off track, sounding nothing close to the original

guest
You may want to rate the tab now too:
select rating
Wanna post a correction for this tab? Suggest correction