Oops, an error
Loading. Please wait.

Down By The Seaside bass

version 1
version 1

Whole song

Interactive

22 views 1 this week
no commentswrite comment
1 2 3 4 5
3 more votes to show rating
add to favorites
×
Save as Personal and add changes to this tab that will be seen only by you. Learn more ›
×
You can save this tab as Personal to edit and correct it or add notes. All changes will be seen only by you. Learn more »
launch autoscroll
font size
0
reset
guitar tuner
edit
Autoscroll
slow
fast
+/-
esc
set tempo
stop
[Intro]                                                           
G|--------------------------------|----------------0---------------|
D|3-------------------------------|--------------------------------|
A|--------------------------------|--------------------------------|
E|--------------------------------|--------------------------------|
                                                                     
G|--------------------------------|--------------------------------|
D|--------------------------------|3-------------------------------|
A|--------------------------------|--------------------------------|
E|--------------------------------|--------------------------------|
                                                                     
G|--------------------------------|--------------------------------|
D|----------------3---------------|--------------------------------|
A|----------------------------3---|--------------------------------|
E|--------------------------------|--------------------------------|
                                                                     
G|--------------------------------|----------------0---------------|
D|3-------------------------------|--------------------------------|
A|--------------------------------|--------------------------------|
E|--------------------------------|--------------------------------|
                                                                     
G|--------------------------------|--------------------------------|
D|--------------------------------|3-------------------------------|
A|--------------------------------|--------------------------------|
E|--------------------------------|--------------------------------|
 
                                  [Verse]                           
G|--------------------------------|--------------------------------|
D|----------------3---------------|--------------------------------|
A|----------------------------3---|--------------------------------|
E|--------------------------------|--------------------------------|
                                                                     
G|--------------------------------|------------0-------------------|
D|3-------------------------------|--------------------------------|
A|--------------------------------|----------------3---------------|
E|--------------------------------|--------------------------------|
                                                                     
G|--------------------------------|--------------------------------|
D|--------------------------------|3-------------------------------|
A|--------------------------------|--------------------------------|
E|--------------------------------|--------------------------------| 
                                                                    
G|------------5-------------------|--------------------------------|
D|--------------------------------|--------------------------------|
A|----------------3---------------|--------------------------------|
E|--------------------------------|--------------------------------|
                                                                     
G|--------------------------------|--------------------------------|
D|3-------------------------------|--------------------------------|
A|--------------------------------|----------------3---------------|
E|--------------------------------|--------------------------------|
                                                                    
G|--------------------------------|--------------------------------|
D|--------------------------------|------------3-------------------|
A|--------------------------------|3-------------------------------|
E|--------------------------------|--------------------------------|
                                                                    
G|--------------------------------|--------------------------------|
D|----3---------------------------|--------------------3-----------|
A|--------------------------------|--------------------------------|
E|--------------------------------|--------------------------------|
 
[Chorus]                                                           
G|--------------------------------|--------------------------------|
D|--------------------------------|--------------------------------|
A|3-----------3-----------3-------|----3-----------3-----------3---|
E|--------------------------------|--------------------------------|
                                                                     
G|--------5-----------------------|--------------------------------|
D|--------------------------------|3-------------------------------|
A|--------------------3-------3---|--------------------------------|
E|--------------------------------|--------------------------------|
                                                                     
G|--------------------------------|--------------------0-----------|
D|----------------3---------------|--------------------------------|
A|--------------------------------|--------------------------------|
E|--------------------------------|--------------------------------|
                                                                     
G|------------------------0---5---|----0---------------------------|
D|--------------------------------|--------------------------------|
A|3-------------------------------|----------------3---------------|
E|--------------------------------|--------------------------------|
                                                                     
G|--------------------------------|--------------------------------|
D|--------------------0-------2---|3-------------------------------|
A|----------------3---------------|--------------------------------|
E|--------------------------------|--------------------------------|
                                                                     
G|--------------------------------|--------------------------------|
D|----------------3---------------|--------0-----------2-----------|
A|------------3---------------3---|--------------------------------|
E|--------------------------------|--------------------------------|
                                                                     
G|--------------------------------|--------------------------------|
D|3-----------3-----------3-------|--------------------------------|
A|--------------------------------|----------------3---------------|
E|--------------------------------|--------------------------------|
                                                                    
G|--------------------------------|--------------------------------|
D|--------------------------------|3-----------3-----------3-------|
A|--------------------------------|--------------------------------|
E|--------------------------------|--------------------------------|
                                                                     
G|--------------------------------|--------------------------------|
D|--------------------------------|--------------------------------|
A|----------------3---------------|--------------------------------|
E|--------------------------------|--------------------------------|
                                                                    
G|--------------------------------|--------------------------------|
D|--------------------------------|--------------------------------|
A|--------------------------------|----------------3---------------|
E|--------------------------------|--------------------------------|
 
[Verse]                                                            
G|--------------------------------|--------------------------------|
D|--------------------------------|3-------------------------------|
A|--------------------------------|--------------------------------|
E|--------------------------------|--------------------------------| 
                                                                    
G|--------------------------------|--------5-----------0-----------|
D|--------------------------------|--------------------------------|
A|----------------3---------------|--------------------------------|
E|--------------------------------|--------------------------------|
                                                                    
G|--------------------------------|------------0-------------------|
D|3-------------------------------|--------------------------------|
A|--------------------------------|----------------3---------------|
E|--------------------------------|--------------------------------| 
                                                                    
G|--------------------------------|--------------------------------|
D|--------------------------------|3-------------------------------|
A|--------------------------------|--------------------------------|
E|--------------------------------|--------------------------------|
                                                                     
G|--------------------------------|--------------------------------|
D|--------------------------------|--------------------------------|
A|----------------3---------------|--------------------------------|
E|--------------------------------|--------------------------------| 
                                                                    
G|--------------------------------|--------------------------------|
D|------------3-------------------|----3-------------------3---3---|
A|3-------------------------------|--------------------------------|
E|--------------------------------|--------------------------------|
 
                                  [Chorus]                          
G|--------------------------------|------------------------5-------|
D|----------------3---3---2---0---|--------------------------------|
A|--------------------------------|3-------------------------------|
E|--------------------------------|--------------------------------|
                                                                    
G|----0-------0-------------------|--------------------------------|
D|--------------------------------|--------0-------0---2-----------|
A|----------------3---------------|--------------------------------|
E|--------------------------------|--------------------------------|
                                                                    
G|--------------------------------|--------------------------------|
D|3-------------------------------|----------------3---------------|
A|--------------------------------|------------3-------------------|
E|--------------------------------|--------------------------------|
                                                                    
G|--------------------0-----------|------------------------5-------|
D|----------------3---------------|--------------------------------|
A|--------------------------------|3-------------------------------|
E|--------------------------------|--------------------------------|
                                                                    
G|----0---------------------------|--------------------------------|
D|--------------------------------|--------0-----------2-----------|
A|----------------3---------------|--------------------------------|
E|--------------------------------|--------------------------------|
                                                                  
G|--------------------------------|--------------------------------|
D|3-------------------------------|----------------3---------------|
A|--------------------------------|------------3-------------------|
E|--------------------------------|--------------------------------|
                                                                  
G|--------------------------------|--------------------------------|
D|------------------------0---2---|3-----------------------3-------|
A|--------------------3-----------|--------------------------------|
E|--------------------------------|--------------------------------|
                                                                     
G|--------------------------------|--------------------------------|
D|------------3-------------------|--------------------------------|
A|----------------3---------------|--------------------------------|
E|--------------------------------|--------------------------------|
 
                                  [Verse]                           
G|--------------------------------|----------------2---2---2---2---|
D|3-----------3-----------3-------|--------------------------------|
A|--------------------------------|--------------------------------|
E|--------------------------------|--------------------------------|
                                                                    
G|2---2---2---2---2---2---2---2---|2---2---2---2---2---2---2---2---|
D|--------------------------------|--------------------------4-----|
A|--------------------------------|--------------------------------|
E|--------------------------------|--------------------------------|
                                                                    
G|2---2---2---2---2---2---2---2---|2---2---2---2---2---2---2---2---|
D|----------4---------------4-----|----------4---------------4-----|
A|--------------------------------|--------------------------------|
E|--------------------------------|--------------------------------|
                                                                     
G|2---2---2---2---2---2---2---2---|2---2-----------2---2---2---2---|
D|----------4---------------------|--------4---2-------------4-----|
A|--------------------------------|--------------------------------|
E|--------------------------------|--------------------------------|
                                                                     
G|2---2---2---2---2---2---2---2---|2---2-----------2---2---2---2---|
D|----------4---------------4-----|--------4---2-------------4-----|
A|--------------------------------|--------------------------------|
E|--------------------------------|--------------------------------|
                                                                    
G|2---2---2---2---2---2---2---2---|2---2-----------2---2---2---2---|
D|----------4---------------4-----|--------4---2-------------4-----|
A|--------------------------------|--------------------------------|
E|--------------------------------|--------------------------------|
                                                                     
G|2---2---2---2---2---2---2---2---|2---2-----------2---2---2---2---|
D|----------4---------------4-----|--------4---2-------------4-----|
A|--------------------------------|--------------------------------|
E|--------------------------------|--------------------------------| 
                                                                    
G|2---2---2---2---2---2---2---2---|2---2-----------2---2---2---2---|
D|----------4---------------4-----|--------4---2-------------4-----|
A|--------------------------------|--------------------------------|
E|--------------------------------|--------------------------------|
                                                                    
G|2---2---2---2---2---2---2---2---|2---2-----------2---2---2---2---|
D|----------4---------------4-----|--------4---2-------------4-----|
A|--------------------------------|--------------------------------|
E|--------------------------------|--------------------------------| 
                                                                    
G|2---2---2---2---2---2---2---2---|2---2---------------------------|
D|----------4---------------4-----|--------4---2-------------------|
A|--------------------------------|--------------------------------|
E|--------------------------------|--------------------------------|
 
[Verse]                                                            
G|--------------------------------|--------------------------------|
D|--------------------------------|----------------0---------------|
A|--------------------------------|--------------------------------|
E|--------------------------------|--------------------------------|
                                                                     
G|--------0-2-------------------2-|--0-2-----------2---------------|
D|------0---------0---------------|--------0-----------------------|
A|--------------------------------|--------------------------------|
E|--------------------------------|--------------------------------| 
                                                                    
G|----------------2---2---2---2---|2---2---2---2-------------------|
D|--------------------------------|----------------0---------------|
A|--------------------------------|--------------------------------|
E|--------------------------------|--------------------------------| 
                                                                    
G|--------------------------------|--------------------------------|
D|----------------------------2---|3-------------------------------|
A|--------------------------------|--------------------------------|
E|--------------------------------|--------------------------------|
                                                                    
G|----------------0---------------|--------------------------------|
D|--------------------------------|--------------------------------|
A|--------------------------------|--------------------------------|
E|--------------------------------|--------------------------------|
                                                                     
G|--------------------------------|--------------------------------|
D|3-------------------------------|----------------3---------------|
A|--------------------------------|----------------------------3---|
E|--------------------------------|--------------------------------|
                                                                    
G|--------------------------------|--------------------------------|
D|--------------------------------|3-------------------------------|
A|--------------------------------|--------------------------------|
E|--------------------------------|--------------------------------|
                                                                    
G|----------------0---------------|--------------------------------|
D|------------0-------------------|--------------------------------|
A|--------------------------------|----------------------------3---|
E|--------------------------------|--------------------------------|
                                                                     
G|--------------------------------|--------------------------------|
D|--------------------------------|--------------------------------|
A|--------------------------------|----------------------------3---|
E|1-------------------------------|----------------1---------------|
 
[Verse]                                                            
G|--------------------------------|--------------------------------|
D|--------------------------------|3-------------------------------|
A|--------------------------------|--------------------------------|
E|--------------------------------|--------------------------------|
                                                                     
G|--------------------------------|--------------------------------|
D|--------------------------------|--------------------------------|
A|----------------3---------------|--------------------------------|
E|--------------------------------|--------------------------------| 
                                                                    
G|--------------------------------|------------0-------------------|
D|3-------------------------------|--------------------------------|
A|--------------------------------|----------------3---------------|
E|--------------------------------|--------------------------------|
                                                                     
G|--------5-----------0-----------|--------------------------------|
D|--------------------------------|3-------------------------------|
A|--------------------------------|--------------------------------|
E|--------------------------------|--------------------------------|
                                                                     
G|------------0-------------------|--------0-----------5-----------|
D|--------------------------------|--------------------------------|
A|----------------3---------------|--------------------------------|
E|--------------------------------|--------------------------------|
                                                                     
G|--------------------------------|--------------------------------|
D|------------3-------------------|----3-------------------3---3---|
A|--------------------------------|--------------------------------|
E|--------------------------------|--------------------------------|
 
                                  [Chorus]                          
G|--------------------------------|--------------------------------|
D|--------------------3-----------|--------------------------------|
A|--------------------------------|3-------------------------------|
E|--------------------------------|--------------------------------|
                                                                     
G|--------------------------------|--------5-----------------------|
D|--------------------------------|----------------------------2---|
A|----------------3---------------|--------------------3-----------|
E|--------------------------------|--------------------------------|
                                                                     
G|--------------------------------|--------------------------------|
D|3-------------------------------|----------------3---------------|
A|--------------------------------|------------3-------------------|
E|--------------------------------|--------------------------------|
 
[Outro]                                                            
G|----------------------------0---|------------5-----------5-------|
D|--------------------3-----------|--------------------------------|
A|--------------------------------|3-------------------------------|
E|--------------------------------|--------------------------------|
                                                                     
G|----0---------------------------|--------------------------------|
D|--------------------------------|--------------------------------|
A|----------------3---------------|--------------------------------|
E|--------------------------------|--------------------------------|
                                                                     
G|--------------------------------|--------------------------------|
D|3-------------------------------|----------------3---------------|
A|--------------------------------|------------3---------------3---|
E|--------------------------------|--------------------------------|
                                                                     
G|--------------------------------|--------------------------------|
D|--------0-----------2-----------|3-----------3-----------3-------|
A|--------------------------------|--------------------------------|
E|--------------------------------|--------------------------------| 
                                                                    
G|--------------------------------|--------------------------------|
D|--------------------------------|--------------------------------|
A|----------------3---------------|--------------------------------|
E|--------------------------------|--------------------------------|
                                                                     
G|--------------------------------|------------0-------------------|
D|3-----------3-----------3-------|--------------------------------|
A|--------------------------------|----------------3---------------|
E|--------------------------------|--------------------------------|
                                                                     
G|--------------------------------|--------------------------------|
D|--------------------------------|--------------------------------|
A|--------------------------------|--------------------------------|
E|--------------------------------|--------------------------------|
                                                                     
G|--------------------------------|--------------------------------|
D|--------------------------------|--------------------------------|
A|----------------3---------------|--------------------------------|
E|--------------------------------|--------------------------------|
                                                                     
G|--------------------------------|------------0-------------------|
D|3-------------------------------|--------------------------------|
A|--------------------------------|----------------3---------------|
E|--------------------------------|--------------------------------|
                                                                     
G|--------------------------------|--------------------------------|
D|--------------------------------|3-------------------------------|
A|--------------------------------|--------------------------------|
E|--------------------------------|--------------------------------|
                                                                    
G|------------0-------------------|--------------------------------|
D|--------------------------------|--------------------------------|
A|----------------3---------------|--------3-------3---3-------3---|
E|--------------------------------|--------------------------------|
                                                                     
G|--------------------------------|------------0-------------------|
D|3-------------------------------|--------------------------------|
A|--------------------------------|----------------3---------------|
E|--------------------------------|--------------------------------|
                                                                     
G|--------------------5-----------|--------------------------------|
D|--------------------------------|3-----------3-------------------|
A|--------------------------------|--------------------------------|
E|--------------------------------|--------------------------------| 
                                                                    
G|--------------------------------|----------------------------0---|
D|3---3-----------------------3---|----------------3---3-----------|
A|--------------------------------|--------------------------------|
E|--------------------------------|--------------------------------|
                                                                     
G|------------------------0-------|----5---------------------------|
D|--------------------------------|--------------------------------|
A|3-------------------------------|----------------3---------------|
E|--------------------------------|--------------------------------|
                                                                     
G|--------------------------------|--------------------------------|
D|--------0-----------2-----------|3-----------3-------3-----------|
A|--------------------------------|--------------------------------|
E|--------------------------------|--------------------------------|
                                                                     
G|--------------------------------|------------0-----------0-------|
D|3---3-------3---3---------------|--------3-----------3-----------|
A|--------------------------------|--------------------------------|
E|--------------------------------|--------------------------------| 
                                                                    
G|--------------------------------|----5---------------------------|
D|--------------------------------|--------------------------------|
A|3-------------------------------|----------------3---------------|
E|--------------------------------|--------------------------------|
                                                                     
G|----0---5-----------------------|--------------------------------|
D|--------------------------------|3-------------------------------|
A|--------------------------------|--------------------------------|
E|--------------------------------|--------------------------------|
                                                                     
G|--------------------------------|--------------------------------|
D|----------------3---------------|--------0-----------2-----------|
A|------------3---------------3---|--------------------------------|
E|--------------------------------|--------------------------------|
                                                                     
G|--------------------------------|------------0-------------------|
D|3-----------3-----------3-------|--------------------------------|
A|--------------------------------|----------------3---------------|
E|--------------------------------|--------------------------------| 
                                                                    
G|--------------------------------|--------------------------------|
D|--------------------------------|3-----------3-----------3-------|
A|--------------------------------|--------------------------------|
E|--------------------------------|--------------------------------|
                                   
G|--------------------------------|
D|--------------------------------|
A|----------------3---------------|
E|--------------------------------|

            
            
Suggest correction
Creating personal tab
Creating personal tab
You can edit any tab online and save it as your Personal.

You can edit, replace or remove any tab part or add personal notes – all changes will be seen only by you.

Personal tabs can be accessed anytime from any device, even offline.
Learn more »
Give kudos to tab author, rate the tab!
1 2 3 4 5
comments
print report bad tab
guest
You may want to rate the tab now too:
select rating
Wanna post a correction for this tab? Suggest correction