Oops, an error
Loading. Please wait.

Down By The Seaside tab

version 1
version 1

Whole song

Interactive

Video

54,915 views 93 this week
7 commentsread comments
1 2 3 4 5
x 30
add to favorites
×
Save as Personal and add changes to this tab that will be seen only by you. Learn more ›
×
You can save this tab as Personal to edit and correct it or add notes. All changes will be seen only by you. Learn more »
launch autoscroll
font size
0
reset
how to read this tab
guitar tuner
edit
Autoscroll
slow
fast
+/-
esc
set tempo
stop
Down by the Seaside, by Led Zeppelin from Physical Graffiti
Transcribed by Ryan Bailey, baileyb@uwstout.edu

This is my best shot to nail this song down.  It's pretty tough to sound
just like the original--there's like 4 guitar overdubs plus an electric piano, 
but this is the main part.


(Begin Rhythm Figure 1)
E|-5--4/5--3--|-3--5--5/7--5-------|--4/5--3--1---------|
B|-5----------|--------------------|--------------------|
G|-5--4/5--4--|-4--5--5/7--5-------|--4/5--4--2---------|
D|-3----------|--------------------|--------------------|
A|------------|--------------------|--------------------|
E|------------|--------------------|--------------------|

E|--1--3--1--0--------|
B|--------------------|
G|--2--3--2--0--------|  Repeat first four bars..."Down by the
D|--------------------|
A|--------------------|
E|--------------------|
(End Rhythm Figure 1)

  [F]seaside, [C]See the boats go [F]sailing, [C]can the people

  [F]hear [C]what the little fish are saying[F]

(Begin Rhythm Figure 2)
E|-----13-----13-----13--|-----13-----13-----13-----13-------|
B|-----13-----13-----13--|-----13-----13-----13-----13-------|
G|--12b14--12b14--12b14--|--12b14--12b14--12b14--12b14--12b14|
D|-----------------------|-----------------------------------|
A|-----------------------|-----------------------------------|
E|-----------------------|-----------------------------------|

E|------------12--12----12----12--12--|----12----12--12----11------10---|
B|------------------------------------|---------------------------------|
G|--12b14r12----12----12--12----12----|--12--12----12----11--11--10--10-|
D|------------------------------------|---------------------------------|
A|------------------------------------|---------------------------------|
E|------------------------------------|---------------------------------|

E|----17----17--17----17------16----|----17------16------17----17---------|
B|----------------------------------|-------------------------------------|
G|--17--17----17----17--17--16--16--|--17--17--16--16--17--17----17\12----|
D|----------------------------------|-------------------------------------|
A|----------------------------------|-------------------------------------|
E|----------------------------------|-------------------------------------|

E|----12----12--12----12----12--12--|----12----12--12----11------10----|
B|----------------------------------|----------------------------------|
G|--12--12----12----12--12----12----|--12--12----12----11--11--10--10--|
D|----------------------------------|----------------------------------|
A|----------------------------------|----------------------------------|
E|----------------------------------|----------------------------------|

E|----17----17--17----17------16----|----17----17--17----17----17--|
B|----------------------------------|------------------------------|
G|--17--17----17----17--17--16--16--|--17--17----17----17--17------|
D|----------------------------------|------------------------------|
A|----------------------------------|------------------------------|
E|----------------------------------|------------------------------|
       Peo-   ple    turn    a-    way
E|-----13-----13-----13-----13--|--------------------|
B|-----13-----13-----13-----13--|--------------------|
G|--12b14--12b14--12b14--12b14--|--12----------------|
D|------------------------------|--10----------------|
A|------------------------------|--------------------|
E|------------------------------|--------------------|

     Peo-   ple    turn    a-    way
E|-----13-----13-----13-----13--|--8---------------|
B|-----13-----13-----13-----13--|--8---------------|
G|--12b14--12b14--12b14--12b14--|--9---------------|
D|------------------------------|------------------|
A|------------------------------|------------------|
E|------------------------------|------------------|
(End rhythm figure 2)

  [C]Down in the [F]city streets, [C]see all the folk go
  [F]racing, racing.  [C]No time left, [F] oh no
  [C]passing the time of day  (Repeat rhtym figure 2, and
  at end, just a simple jam in A)

  Do you [A]still do the twist, do you find you remember things that 
  [D]well?  I wanna tell you some go [A]twistin' everyday,
  though sometimes it's awful hard to tell.  (Repeat Rhyth Fig 1)

  [C]Out in the [F]country, [C]hear the people [F]singing,
  [C]singing 'bout the [F]growing, [C]knowing where' they're 
  [F]going.  (Repeat Rhythm Fig 2)

  [C]Sing loud for the [F]sunshine, [C]pray hard for the [F]rain,
  [C]and show your love [F]for lady nature, [C]and she will come
  back again. (Repeat Rhythm Fig 2)

Groove...



************************************

| /  Slide up
| b  Bend
| r  Release
| \  Slide down

************************************

            
            
Suggest correction
Creating personal tab
Creating personal tab
You can edit any tab online and save it as your Personal.

You can edit, replace or remove any tab part or add personal notes – all changes will be seen only by you.

Personal tabs can be accessed anytime from any device, even offline.
Learn more »
comments
print report bad tab
7 comments total. Showing first comments.
+1 reply
kamenzie 10 Feb 27, 2006 03:29 PM

Care to share a little more with us? for those that cant figure much more out and dont know if its write anyway. especially those little fillers in between the "out in the country" and other lines in that verse

0 reply
orange_juice 61 May 01, 2007 11:35 AM

awesome tab dude! :D

but i can't find the right tone! (>.

0 reply
orange_juice 61 May 01, 2007 11:35 AM

(>.

guest
Wanna post a correction for this tab? Suggest correction