Oops, an error
Loading. Please wait.

Dyer Maker Bass Tab

version 1
version 1

Whole song

Interactive

26,152 views 42 this week
1 commentread comment
1 2 3 4 5
x 10
add to favorites
launch autoscroll
font size
0
reset
guitar tuner
×
Best way to learn
"Dyer Maker"
Autoscroll
slow
fast
+/-
esc
set tempo
stop
Led Zeppelin: D'yer Mak'er
Album : Houses of the Holy

[Main Riff]

G|---------------------------|-----------------------|
D|-------2-3-5---------------|-----------------------|
A|-3--3---------0--0---0-3-2-|-----------------------|
E|---------------------------|-1--1-----3-3-3-3--3-5-|

[Second Part]

G|--------------------------|-------------------------|
D|--------------------------|-------------------------|  
A|--------------------------|-------------------------|
E|--5-5---5-5----5-5---5-5--|--3-3---3-3----3-3---3-3-|(x3)

G|----------|----------|
D|----------|----------|
A|----------|----------|
E|--1-------|--3-------|It's easy
Suggest correction
comments
print report bad tab
1 comment total.
0 reply
psc209trk 10 May 12, 2008 12:50 PM

dude. nice tab (and comment next to your name. i understand spanish lol). real helpful thx

guest
You may want to rate the tab now too:
select rating
Wanna post a correction for this tab? Suggest correction