Oops, an error
Loading. Please wait.
We have an official Dyer Maker tab made by UG professional guitarists. Check out the tab »
×
10,432 views 36 this week
no commentswrite comment
1 2 3 4 5
x 4
add to favorites
×
Save as Personal and add changes to this tab that will be seen only by you. Learn more ›
×
You can save this tab as Personal to edit and correct it or add notes. All changes will be seen only by you. Learn more »
launch autoscroll
font size
0
reset
how to read this tab
guitar tuner
backing track
0:00
0:00
edit
Autoscroll
slow
fast
+/-
esc
set tempo
stop
Author
Artist: Led Zeppelin
Song: Dyer Maker
E-mail: christopherturner_ct@yahoo.com
Tuning: Standard

[Main Riff]
(All notes, except for the slide notes, are muted very lightly.)
         Cmaj             Am              Fmaj           Gmaj
e|----8------10/12--x-x---5------7/8-x-x---1-----3/5-x-x---3------5/7-x-x|
B|------8-----------x-x-----5--------x-x-----1-------x-x-----3--------x-x|
G|--------9---------x-x-------5------x-x-------2-----x-x-------4------x-x|
D|-10---------------x-x-7------------x-x-3-----------x-x-5------------x-x|
A|-----------------------------------------------------------------------|
E|-----------------------------------------------------------------------|

[Riff 2]
    Am
e|-|5|-------------------------------------------|
B|-|5|-------------------5----------5------------|
G|-|5|-------------------5----------5------------|
D|-|7|-----------------5----------5--------5h7p5-|
A|-|7|-------------5h7--------5h7--------7-------|
E|-|5|-------------------------------------------|

[Play the main riff x3]

[Riff 3]
    Am
e|-|5|----------------------------------------------------------------------|
B|-|5|----------------------------------------------------------------------|
G|-|5|----------------------------------------------------------------------|
D|-|7|----------------------------------------------------------------------|
A|-|7|-7-7-x-7-x-x-7-7-x-7-0-5-5-x-5-x-x-5-5-x-5-5-5-5/7-7-x-7-x-x-7-7-x-7-0|
E|-|5|-5-5-x-5-x-x-5-5-x-5-0-3-3-x-3-x-x-3-3-x-3-3-3-3/5-5-x-5-x-x-5-5-x-5-0|

|Riff 4|
    Fmaj                  Gmaj
e|------------------------------------------------|
B|---1-----1-----1-----1/3-----3-----6-----5-----3|
G|-----2-----2-----2-----2/4-----4-----4-----4----|
D|-3-----3-----3-----3-----3/5-----5-----5-----5--|
A|------------------------------------------------|
E|------------------------------------------------|

[Solo]
Look at, "version 1" for the solo.

[Main riff ending]

(This looks exactly like the main riff played throughout the song, but if you look 
carefully, there is one extra note played in every chord transition.)
         Cmaj             Am              Fmaj
e|----8-----8-10/12-x-x---5-----5-7/8-x-x---1-----1-3/5-x-x|
B|------8-----------x-x-----5---------x-x-----1---------x-x|
G|--------9---------x-x-------5-------x-x-------2-------x-x|
D|-10---------------x-x-7-------------x-x-3-------------x-x|
A|---------------------------------------------------------|
E|---------------------------------------------------------|

    Gmaj
e|---3-----3-5/7-x-x|
B|-----3---------x-x|
G|-------4-------x-x|
D|-5-------------x-x|
A|------------------|
E|------------------|


************************************

| x  Dead note
| /  Slide up
| h  Hammer-on
| p  Pull-off

************************************
Suggest correction
Creating personal tab
Creating personal tab
You can edit any tab online and save it as your Personal.

You can edit, replace or remove any tab part or add personal notes – all changes will be seen only by you.

Personal tabs can be accessed anytime from any device, even offline.
Learn more »
comments
print report bad tab
guest
You may want to rate the tab now too:
select rating
Wanna post a correction for this tab? Suggest correction