Oops, an error
Loading. Please wait.

Gallows Pole tab

version 3
version 3

Whole song

Interactive

44,737 views 186 this week
no commentswrite comment
1 2 3 4 5
x 23
add to favorites
×
Save as Personal and add changes to this tab that will be seen only by you. Learn more ›
×
You can save this tab as Personal to edit and correct it or add notes. All changes will be seen only by you. Learn more »
launch autoscroll
font size
0
reset
how to read this tab
guitar tuner
edit
Autoscroll
slow
fast
+/-
esc
set tempo
stop
Author
Gallows Pole - Led Zeppelin (Guitar, mandolin, and banjo parts)

Guitar Part:


Tuning: Standard Tuning (EADGBe)
Time Signature: 4/4 (unless instructed otherwise)


[Intro riff]

E|--------(0)(0)-------|--------(0)(0)-----5-|
B|---222~--1--1--1/3-3-|---222~--1--1--1/3-3-|
G|---000~--0--0--------|---000~--0--0--------|
D|---222~--------2/4-4-|---222~--------2/4-4-|
A|-0-------------------|-0-------------------|
E|---------------------|---------------------|

                                                     2/4 time
E|0-003-332-223-33|0-002-223-3--33-|0-003-332-223-33|3-332-22|
B|2-220-003-330-00|2-223-330-0--00-|2-220-003-330-00|0-003-33|
G|2-220-002-220-00|2-222-220-0--00-|2-220-002-220-00|0-002-22|
D|2-220-000-000-00|2-220-000-0--00-|2-220-000-000-00|0-000-00|
A|0-002-22----2-22|0-00----2-2--22-|0-002-22----2-22|2-22----|
E|----3-33----3-33|--------3-3--33-|----3-33----3-33|3-33----|
  Hangman, hangman, hold it a little while.....


[Main riff]

E|----------------|
B|----------------|
G|--------22222222|
D|--2---2-22222222|
A|--0---0-00000000|
E|3---3-----------|
          lightly mute


 Another part      2/4 time
E|----------------|0---2---|
B|----------------|1---3---|
G|--------222-2-2-|0---2---|
D|--2---2-222-2-2-|2---0---|
A|--0---0-000-0-0-|3-------|
E|3---3-----------|--------|
          Yes I've brought you.....

E|3---2-----------|
B|0---3-----------|
G|0---2-----2---2-|
D|0---0-----2---2-|
A|2---------0---0-|
E|3-------3---3---|
  Swingin' on the gallows pole......

 
[Guitar Solo]

      ~~~~~~                    ~~~
E|-------------------------|-----------------------------------------------|
B|----)-----------17----)--|-------------------------------)---------------|
G|--16----------------16---|--14---------------------14--16---16--14-------|
D|-------------------------|-----------------14--16-------------------16---|
A|-------------------------|-----------------------------------------------|
E|-------------------------|-----------------------------------------------|

      ~~
E|--------------------------------------------------|------------------------|
B|----------------)---------------------------------|----)-------------------|
G|--14------14--16---14-----------------14--16--14--|--16---16---------------|
D|-----------------------------14^16----------------|------------------------|
A|--------------------------------------------------|------------------------|
E|--------------------------------------------------|------------------------|

E|--------------------|--------------------------------------|---------------|
B|--------------------|--------)--------------)-----)-----)--|---------------|
G|---------14--16^14--|--14--16-----16--14--16----16----16---|--16--14-------|
D|--14^16-------------|--------------------------------------|-----------16--|
A|--------------------|--------------------------------------|---------------|
E|--------------------|--------------------------------------|---------------|

              ~~
E|--------------------------------14----|----17^14------14-------------------|
B|-------------------------)--14------17^14---------17------17--14-----------|
G|--16------14----16--14-16-------------|---------------------------17--16--X|
D|------16------------------------------|------------------------------------|
A|--------------------------------------|------------------------------------|
E|--------------------------------------|------------------------------------|

E|-----------------------|----------------------------------)--------)---|
B|-----------)-----------|--------------------------------20-------20----|
G|--14--14-16----16--14--|--16------14--16-----16------------------------|
D|-----------------------|------16---------------------------------------|
A|-----------------------|-----------------------------------------------|
E|-----------------------|-----------------------------------------------|

                                                                     ~~~~
E|----)-----)--------------------------|-------------------------------------|
B|--20----20----20--17-----------------|-------------------)-----------------|
G|----------------------18\------------|--------------14-16----16--14--(14)\-|
D|-------------------------------------|------14--16-------------------------|
A|-------------------------------------|-------------------------------------|
E|-------------------------------------|-------------------------------------|

                                      ~~
E|-------------------------------------------------------------|-------------|
B|-------------------------------------------------------------|-------------|
G|--17--17--17--17--16--14------16--------14---16--14--14--14--|--16--16--14-|
D|--------------------------16------16-------------------------|-------------|
A|-------------------------------------------------------------|-------------|
E|-------------------------------------------------------------|-------------|

E|----------------------------------------|----------------------------------|
B|--------20--19--17------19--17----------|----------------------------)-----|
G|-14-----------------17----------17--16--|--------------------------19------|
D|----------------------------------------|----19--17-----------/19----------|
A|----------------------------------------|------------19--17\16-------------|
E|----------------------------------------|----------------------------------|

                            ~~~
E|----------|-----------------------------------------|----------------------|
B|----------|----)------------------------------------|--------------------17|
G|--17--19--|--19-----18------------------------------|--17------------------|
D|----------|-------------19-------19^17------17--19--|------19^17--19-------|
A|----------|-----------------------------19----------|----------------------|
E|----------|-----------------------------------------|----------------------|

                                 ~~~
E|------|------------------------------------------------|------------------|
B|---)--|----------------)------------------17--17----)--|------17-----)----|
G|-19---|--------------16------14-------------------16---|-----------16---16|
D|------|------------------------------------------------|------------------|
A|------|------------------------------------------------|------------------|
E|------|------------------------------------------------|------------------|

                                                      ~~
E|--------------------------------------|-----------------------------------|
B|--------------------------------------|--17----)--------17--15------------|
G|--14------14-------------------14-----|------16---14----------------------|
D|------16------16^14-------/16---------|-----------------------------------|
A|---------------------16^14------------|-----------------------------------|
E|--------------------------------------|-----------------------------------|

                                                                   ~~
E|--------------------------------------|------------------------------------|
B|--19--------20-19-17-----19-17--------|------------------------------------|
G|----------------------17-------17-16--|-----14----------------/14----------|
D|--------------------------------------|---------17--14-----------------/-16|
A|--------------------------------------|-----------------18\16--------------|
E|--------------------------------------|------------------------------------|

                                                            ~~
E|-----------|------------------------)------|----)--------------------------|
B|--------)--|----------------------17-------|--17----16--14-------14------)-|
G|--14--16---|--14--16---14---16-------------|------------------------14-16--|
D|-----------|-------------------------------|-------------------------------|
A|-----------|-------------------------------|-------------------------------|
E|-----------|-------------------------------|-------------------------------|

                            ~~
E|------------|----------------------|------------------------------------|
B|------------|----------------------|-----------------)--------)-----19--|
G|----14--16--|-----14-16-14----16---|------------17-19-------19----------|
D|------------/16--------------------|-------19---------------------------|
A|------------|----------------------|------------------------------------|
E|------------|----------------------|------------------------------------|

E|---------------------------------------------------|-----------------------|
B|---------------------------------------------------|-------X---)-----------|
G|--20--19--17----------------14--16^14------14--16--|--14-----16-----14-----|
D|----------------19-----/16-------------16----------|-----------------------|
A|---------------------------------------------------|-----------------------|
E|---------------------------------------------------|-----------------------|

E|----------------------------|---------------------------------------------|
B|----20--19--17------19--17--|---------------------------------------------|
G|----------------17----------|-----17--16--14---------------------------14-|
D|----------------------------|-----------------17--14-------------14-------|
A|----------------------------|-------------------------17--16--------16----|
E|----------------------------|---------------------------------------------|

E|---------|------------------------------17^14------14-----------------|----|
B|------)--|--14---------------------------------17------17--14---------|----|
G|-16-16---|------14--16--14--16^14--14--------------------------17--16-|--14|
D|---------|------------------------------------------------------------|----|
A|---------|------------------------------------------------------------|----|
E|---------|------------------------------------------------------------|----|

E|--------------------------------14--14--14--14------14--14--|----------|
B|---------------------------)----14--14----------)---14------|---17^14--|
G|------16------14--16--14-16-------------------16------------|----------|
D|--16------16------------------------------------------------|----------|
A|------------------------------------------------------------|----------|
E|------------------------------------------------------------|----------|

                               ~~~                               ~~~
E|--------------------------------------------|------)----------------------|
B|--------------------------------------------|----10------8---10--------0--|
G|--16-^-14------16----------14-----14\-------|-----------------------------|
D|-----------16------16--16-------------------|-----------------------------|
A|--------------------------------------------|-----------------------------|
E|--------------------------------------------|-----------------------------|

                            ~~~
E|---------------------------------|--------------------10^7-----------------|
B|--10^9------9--10--12-9^10-------|---8^7-----7--8--0--------8^7------------|
G|--------11-----------------------|--------9----------------------9--7--6---|
D|---------------------------------|----------------------------------------7|
A|---------------------------------|-----------------------------------------|
E|---------------------------------|-----------------------------------------|

                                                                    fade out
E|-------|---------------------------------|----------------------)----------|
B|-------|------------------------------)--|-----------------10-12-----10--12|
G|--7^6--|--7^6---------------------7--5---|------------/11------------------|
D|-------|-------7--5----------------------|-7----7--------------------------|
A|-------|-------------7--5--4-------------|---------------------------------|
E|-------|---------------------------------|---------------------------------|


[Mandolin Part]


Tuning: Standard (GDAE)

  When mandolin enters at 1:05
  4/4 time                                           2/4 time
E|----------------|-------------373|-------7--------|3-20----|
A|----------------|-----------10---|----------------|----3-2-|
D|7---5-79--------|7---------------|7---5-----------|-------3|
G|--------7-91112-|----7-91112-----|--------7-91112-|--------|

  4/4 time                   2/4 time
E|----------------|         |--------|
A|----------------|         |--------|
D|----------------|5 times  |--------|
G|0-2-0-2---------|         |--------|

  4/4 time                   2/4 time
E|----------------|         |--------|
A|----------------|         |--------|
D|----------------|5 times  |--------|
G|0-2-0-2---------|         |--------|

  4/4 time                   2/4 time
E|----------------|         |--------|
A|----------------|         |--------|
D|----------------|2 times  |--------|
G|0-2-0-2---------|         |--------|

  4/4 time                   2/4 time
E|----------------|         |--------|
A|----------------|         |--------|
D|----------------|2 times  |--------|
G|0-2-0-2---------|         |--------|

  4/4 time                                           2/4 time
E|----------------|-------------373|-------7--------|3-20----|
A|----------------|-----------10---|----------------|----3-2-|
D|7---5-79--------|7---------------|7---5-----------|-------3|
G|--------7-91112-|----7-91112-----|--------7-91112-|--------|

  4/4 time
E|----------------|----------------|----------------|----------------|
A|----------------|----------------|----------------|----------------|
D|----------------|----------------|----------------|----------------|
G|0-2-0-2---------|0-2-0-2---------|0-2-0-2---------|0-2-------------|

                   2/4 time 4/4 time
E|----------------|--------|----------------|----------------|
A|----------------|--------|----------------|----------------|
D|----------------|--------|----------------|----------------|
G|0-2-------------|4---7---|0-2-------------|0-2-------------|

E|----------------|----------------|----------------|
A|----------------|----------------|----------------|
D|----------------|----------------|----------------|
G|0-2-------------|0-2-------------|0-2-------------|

                                                     2/4 time
E|----------------|-------------373|-------7--------|3-20----|
A|----------------|-----------10---|----------------|----3-2-|
D|7---5-79--------|7---------------|7---5-----------|-------3|
G|--------7-91112-|----7-91112-----|--------7-91112-|--------|

  4/4 time                   2/4 time
E|----------------|         |--------|
A|----------------|         |--------|
D|----------------|6 times  |--------|
G|0-2-0-2---------|         |--------|

  4/4 time                   2/4 time
E|----------------|         |--------|
A|----------------|         |--------|
D|----------------|5 times  |--------|
G|0-2-0-2---------|         |--------|

  4/4 time                   2/4 time
E|----------------|         |--------|
A|----------------|         |--------|
D|----------------|3 times  |--------|
G|----------------|         |--------|

E|----------------|----------------|----------------|----------------|
A|----------------|----------------|----------------|----------------| 2 times
D|----------------|----------------|----------------|----------------| then repeat
G|----------------|----------------|----------------|----------------| to fade


[Banjo Part]


Tuning: Standard C Tuning (GCGBD)


  When banjo enters at 2:04
D|----------------|-7--------------|77--------------|77--------------|
B|-5---5---5---5--|7--7-----7-7----|---7-----7-7----|--57-5---7-75--5|
G|5--55--55--55--5|--9--9--7-7--9--|--9--9--7---95--|--------7----77-|
C|--9---9---9---9-|------77------77|------77--7---77|------99--9-----|
G|----------------|----------------|----------------|----------------|
                   Sister, I implore you.....

  24 time   4/4 time
D|---------|------7---------|----------------|----------------|
B|---------|-------77-------|----------------|---7-5----------|
G|74-77---7|75-9-5---5-97579|95-9-5-9-955955-|95-----574777--4|
C|--7--9---|--9-9-----9-----|--9---9---------|--9-9-9------99-|
G|------11-|----------------|----------------|----------------|

D|----------------|------7-777-----|7---5---7---5-55|7---7---5-5--555|
B|-------7--------|7------7---7----|5---3---7---3-33|5---7---3-3--333|
G|5---9-9-95595--9|-99579-------7-5|6---4---5---4-44|6---5---4-4--444|
C|--9--9-------99-|----------------|----------------|----------------|
G|----------------|----------------|----------------|----------------|
                                    Hangman, hangman, upon your face a smile.....

                   2/4 time 4/4 time
D|7---5---7---5---|----7---|------------7---|--------9779-12-9|
B|5---3---7---3---|--------|8---8---8-------|----8------------|
G|6---4---5---4---|-979---9|--9---9--9-9-9-5|79-9--9----------|
C|----------------|-----97-|-9-9-9-9--9---9-|--9--9-9---------|
G|----------------|--------|----------------|-----------------|

                                                                      2/4 time
D|7---7-----------|7---7-----------|77--------------|77--------------|---------|
B|----------------|---------7-7----|---7-----7-7----|---7-----7-7----|---------|
G|--99-9995659-9-9|--9--9997-7-95--|--9--9--7---95--|--9--9--7---9779|74-77---7|
C|----------------|--------------99|------99--9---99|------99--9-----|--7--9---|
G|----------------|----------------|----------------|----------------|------11-|

  4/4 time
D|------7---------|--------9779----|----------------|7---------------|
B|-----------7----|----------------|---7------------|---7-----7-7----|
G|76-9-6-996--9679|96-99--------6-9|-6---9-674777--4|--9--9--7-7-95--|
C|--9-9-----9-----|--9---9---------|--9-9-9------99-|------99------99|
G|----------------|----------------|----------------|----------------|

                                    2/4 time 4/4 time
D|7---------------|7---------------|--------|----------------|
B|---7-----7-7----|---7-----7------|----7---|------------7---|
G|--9--9--7-7-95--|--7--9--7--79-99|74-7-7-5|--9969--69-9--96|
C|------99------99|------99--9--9--|--7---9-|------99--9--9--|
G|----------------|----------------|--------|----------------|

                                    2/4 time 4/4 time
D|--------777-----|----------------|7-7-7-7-|----------------|
B|-----------7----|----------------|--------|----------------|
G|69-969-9-----9-9|69-969-969---969|-9-9-9-9|6-9--969-96969--|
C|--9---9---------|--9---9---679---|--------|-9-99---9-----99|
G|----------------|----------------|--------|----------------|

D|---97--97-910----|----7-7---------|----7-7---------|----7-7---------|
B|-7---------------|----------------|----------------|----------------|
G|9-9------9----699|6-9--9-9-69--9-9|6-9--9-9-69--9-9|6-9--9-9-69--9-9|
C|-----------------|-9-9----7--75-9-|-9-9----7--75-9-|-9-9----7--75-9-|
G|-----------------|----------------|----------------|----------------|

D|----7-7---------|----7-7---------|----7-7---------|----7-7---------|
B|----------------|----------------|----------------|----------------|
G|6-9--9-9-69--9-9|6-9--9-9-69--9-9|6-9--9-9-69--9-9|6-9--9-9-69--9-9|
C|-9-9----7--75-9-|-9-9----7--75-9-|-9-9----7--75-9-|-9-9----7--75-9-|
G|----------------|----------------|----------------|----------------|

D| 7--77--77---7--7|7--77--77---7--7|7--77--77---7--7|7--77--77---7--7 |
B|o----------------|----------------|----------------|----------------o|
G| -99--99---99-99-|-99--99---99-99-|-99--99---99-99-|-99--99---99-99- | Repeat ad
C|o----------------|----------------|----------------|----------------o| lib. to fade
G| ----------------|----------------|----------------|---------------- |



************************************

| (n)  Ghost note
| /    Slide up
| \    Slide down
| ~    Vibrato

************************************

            
            
Suggest correction
Creating personal tab
Creating personal tab
You can edit any tab online and save it as your Personal.

You can edit, replace or remove any tab part or add personal notes – all changes will be seen only by you.

Personal tabs can be accessed anytime from any device, even offline.
Learn more »
comments
print report bad tab
guest
You may want to rate the tab now too:
select rating
Wanna post a correction for this tab? Suggest correction