Oops, an error
Loading. Please wait.
We have an official Heartbreaker tab made by UG professional guitarists. Check out the tab »
×
38,790 views 15 this week
2 commentsread comments
1 2 3 4 5
x 4
add to favorites
×
Save as Personal and add changes to this tab that will be seen only by you. Learn more ›
×
You can save this tab as Personal to edit and correct it or add notes. All changes will be seen only by you. Learn more »
launch autoscroll
font size
0
reset
how to read this tab
guitar tuner
backing track
0:00
0:00
edit
Autoscroll
slow
fast
+/-
esc
set tempo
stop
Author
Song: Heartbreaker
Artist: Led Zeppelin
Album: LED ZEPPELIN II (1969)
Tunning: standard
Tabbed By: INDIE NATION

Words and Music by Jimmy Page, Robert Plant, John Paul Jones & John Bonham

Gtr I (E A D G B E) - 'Jimmy Page - dirty electric'
Gtr II (E A D G B E) - 'Jimmy Page - Solo overdub dirty electric'


[Intro]

   Q=95
  4/4
   Gtr I
               ~                         ~
   Q        Q  Q  E. S S E.      S S S S Q  E. S S E.
e|--------|--------------------|-------------------------|
B|--------|--------------------|-------------------------|
G|--------|--------------------|-------------------------|
D|--------|-------0--1-2-------|------------0--1-2-------|
A|--------|-0--3---------------|-0-0-0-0-3---------------|
E|-3b3.5--|--------------3b3.5-|-------------------3b3.5-|
         |-Riff 1                            end Riff 1-|


e|--|
B|o-| Riff 1 x2
G|--|
D|--|
A|o-|
E|--|



   Q  Q  E. S S E.      S S S S Q  E. S S a    +E.
e|--------------------|-----------------------------|
B|--------------------|-----------------------------|
G|--------------------|-----------------------------|
D|-------2--3-4-------|------------2--3-4-----------|
A|-2--5---------------|-2-2-2-2-5-------------------|
E|--------------5b5.5-|-------------------5b7==(5)--|


Riff 1


[Verse]

   H    Q  S E.   Q  Q  H      H    Q  S E.
e|--------------|------------|--------------|
B|-----------7--|-5----------|-----------7--|
G|-2---------7--|-6----------|-----------7--|
D|-2---------7--|-7----------|-----------7--|
A|-0---------5--|-7----------|-----------5--|
E|--------------|-5----------|--------------|


   Q   Q  H      H    Q  S E.   Q  Q  H
e|-------------|--------------|------------|
B|-5\----------|-----------7--|-5----------|
G|-6\----------|-----------7--|-6----------|
D|-7\----------|-----------7--|-7----------|
A|-7\----------|-----------5--|-7----------|
E|-5\----------|--------------|-5----------|


                                 5/4
   H    Q  S E.   H     Q  S E.   E S S +E  E S E. H
e|--------------|---------------|-0---2-(2)-0---2--0\-----||
B|-----------7--|-5\---------7--|-2---3-(3)-2---3--2\----o||
G|-----------7--|-6\---------7--|-2---2-(2)-2---2--2\-----||
D|-----------7--|-7\---------7--|-2---0-(0)-2---0--2\-----||
A|-----------5--|-7\---------5--|-0---------0------0\----o||
E|--------------|-5\------------|-------------------------||


[Interlude]

    4/4
     Q  Q  E. S S E.      S S S S Q  E. S S E.
e|---------------------|--------------------------||
B|o--------------------|-------------------------o||
G|---------------------|--------------------------||
D|--------3--4-5-------|------------3--4-5--------||
A|o-3--6---------------|-3-3-3-3-6---------------o||
E|---------------6b6.5-|-------------------6b6.5--||


   Q  Q  E. S S E.      S S S S Q  E. S S E.
e|--------------------|-------------------------|
B|--------------------|-------------------------|
G|--------------------|-------------------------|
D|-------5--6-7-------|------------5--6-7-------|
A|-5--8---------------|-5-5-5-5-8---------------|
E|--------------8b8.5-|-------------------8b8.5-|


   Q   Q  E. S S  E.       S S S S  Q  E. S S  E.
e|-----------------------|----------------------------|
B|-----------------------|----------------------------|
G|-----------------------|----------------------------|
D|--------7--8-9---------|-------------7--8-9---------|
A|-7--10-----------------|-7-7-7-7-10-----------------|
E|---------------10b10.5-|--------------------10b10.5-|


   S  S S S E S S E S S S S E   S  S S S E S S E S S S S E
e|----------------------------|-----------------------------|
B|----------------------------|-----------------------------|
G|------7---7-7---7-7---7-9-9-|------7---7-7---7-7---7-9-9--|
D|---/9---9-----9-----9-------|---/9---9-----9-----9--------|
A|-7--------------------------|-----------------------------|
E|----------------------------|-----------------------------|


   S S S S S S S S S S S S S S S S   S S S S S S S S S S S S S S S S
e|---------------------------------|---------------------------------|
B|---------------------------------|-9-9-9-9-9-9-9-9-9-9-9-9-9-9-9-9-|
G|-9-9-9-9-9-9-9-9-9-9-9-9-9-9-9-9-|-9-9-9-9-9-9-9-9-9-9-9-9-9-9-9-9-|
D|-9-9-9-9-9-9-9-9-9-9-9-9-9-9-9-9-|-9-9-9-9-9-9-9-9-9-9-9-9-9-9-9-9-|
A|-7-7-7-7-7-7-7-7-7-7-7-7-7-7-7-7-|-7-7-7-7-7-7-7-7-7-7-7-7-7-7-7-7-|
E|-0-0-0-0-0-0-0-0-0-0-0-0-0-0-0-0-|-0-0-0-0-0-0-0-0-0-0-0-0-0-0-0-0-|


[Guitar Break Overdub]

                         Gtr II
                                         |----6----|     |----6----|
   S S S S S S S S q  Q    H    Q  E E   S S S S S S E E S S S S S S E E
e|-----------------------|-------------|-----------------------------------|
B|-9-9-9-9-9-9-9-9-9-----|-------------|-----------------------------------|
G|-9-9-9-9-9-9-9-9-9-----|-----------2h|=5p2p0---------2h5p2p0---------2h==|
D|-9-9-9-9-9-9-9-9-9-----|-------------|-------2p0-------------2p0---------|
A|-7-7-7-7-7-7-7-7-7-----|-------------|-----------3---------------3-------|
E|-0-0-0-0-0-0-0-0-0-----|-------------|-----------------------------------|


   |----6----| |----6----| |----6----|
   S S S S S S S S S S S S S S S S S S a    +S  T T a    +S  T T
e|----------------------------------------------------------------|
B|----------------------------------------------------------------|
G|-5p2p0h5p2p0h5p2p0h5p2p0h5p2p0h5p2p0-5b9==(9)p2p0h5b9==(5)p2p0h=|
D|----------------------------------------------------------------|
A|----------------------------------------------------------------|
E|----------------------------------------------------------------|

                                                             ~~~
   a    +S  T T a    +S  T T a    +S  T T a    +S  T T a    +H
e|-----------------------------------------------------------------|
B|-----------------------------------------------------------------|
G|-5b9==(9)p2p0h5b9==(9)p2p0h5b9==(9)p2p0h5b9==(9)p2p0h5b9==(9)----|
D|-----------------------------------------------------------------|
A|-----------------------------------------------------------------|
E|-----------------------------------------------------------------|


   +Q   +Q   +H       Q  e e a    +e  a    +e  Q
e|------------------|-----------------------------|
B|------------------|-----------------------------|
G|-(9)r=(7)r=(5)----|------5-7b9==(9)-7b9==(9)----|
D|------------------|----7------------------------|
A|------------------|-----------------------------|
E|------------------|-----------------------------|


   e e a    +E  a    +S  S e E e e
e|---------------------------------|
B|---------------------------------|
G|---5-7b9==(9)-7b9==(9)r7p5-----5-|
D|-7---------------------------7---|
A|---------------------------------|
E|---------------------------------|

                                          |--3---|         |--3---|
  S    +S     +S  +S     +S  +S  E a    +S  +S  S e a    +S  +S  S e
e|--------------------------------------------------------------------|
B|--------------------------------------------------------------------|
G|-7pb9r(9)b9==(9)r(7)b9==(9)r(7)---7b9==(9)r(7)p5---7b9==(9)r(7)p5---|
D|-------------------------------------------------7----------------7-|
A|--------------------------------------------------------------------|
E|--------------------------------------------------------------------|

         |--3---|                             |-3-|
   a    +S  +S  S e e e S S S S S S S S   S S S S S S S S S S S S S S S S S
e|--------------------------------------|-----------------------5-8-5-7-----|
B|------------------------5-8-5---5-x-x-|-8-5---5-5-8-5---5-5-8-5-------5-7-|
G|-7b9==(9)r(7)p5---5-7-7-------7-------|-----7---------7-------------------|
D|----------------7---------------------|-----------------------------------|
A|--------------------------------------|-----------------------------------|
E|--------------------------------------|-----------------------------------|


   S S S S S S S S S S S S S S S S   S S S S S  S S  S S S S S E. s
e|-5-8-5-7-----5-8-5-7-----5-8-5-7-|-----5-5-8-11-8-11-5---5---------|
B|---------5-7---------5-7---------|-5-7-----------------7-----------|
G|---------------------------------|-------------------------7-9--6--|
D|---------------------------------|---------------------------------|
A|---------------------------------|---------------------------------|
E|---------------------------------|---------------------------------|


                          |-3-|        |-3-| |-3-|
   E. S S S S S S S s S E S S S   S. T S S S S S S S S S. T E E E
e|------------------------------|---------------------------------|
B|------------------------------|---------------------------------|
G|-7--4-5-4-2-2---------4-5p4p2-|----2----------------------------|
D|--------------2-4-5-----------|-2----5p4p2-4h5p4p2-4------------|
A|------------------------------|-0--------------------0--x-4-3-5-|
E|------------------------------|---------------------------------|


               |-3-|      |-3-|
   E E Q  S. T S S S S. T S S S   S S S S S S S S S S S S S S S S
e|----------------------------5-|----------------------------------|
B|--------------------------5---|-8-5---5--------------------------|
G|-------------------2--5-6-----|-----8---8-7-5-7p5-------------5--|
D|---------------2-4------------|-------------------7p5---5-6-7----|
A|-3-4----0--3S4----------------|-----------------------7----------|
E|-----3------------------------|----------------------------------|


   S T T S S S S S a    +S  +S  S S S S S S S   S S S S S S E e e e e
e|------------------------------5-------------|---------------------5-|
B|--------------------------------8-5-8p5---5-|-------------------5---|
G|-7-5h7p5---5-5-7-7b9==(7)-(7)-----------7---|-7-5---7-5---5-5-6-----|
D|---------7----------------------------------|-----7-----7-----------|
A|--------------------------------------------|-----------------------|
E|--------------------------------------------|-----------------------|


   E E +Q   q  a e a e   a e a e E E +H
e|-5-------------------|---------------------|
B|---8-(8)-------9---7-|---5---4---3-(3)\----|
G|---------------------|---------------------|
D|-------------9---7---|-6---5---4-----------|
A|----------0----------|---------------------|
E|---------------------|---------------------|


     Gtr I
     E S S +E  E +S   E. E E   E S S +E  E +S   E. E E
e|------------0-(0)-----0---|-----------0-(0)-----0----||
B|o-2---3-(3)-5-(5)-/7--5-3-|-2---3-(3)-5-(5)-/7--5-3-o||
G|--0---0-(0)-0-(0)--0--0-0-|-0---0-(0)-0-(0)--0--0-0--||
D|--2---4-(4)-5-(5)-/7--5-4-|-2---4-(4)-5-(5)-/7--5-4--||
A|o-0---0-(0)-0-(0)--0--0-0-|-0---0-(0)-0-(0)--0--0-0-o||
E|--------------------------|--------------------------||


      W           W
e|------------|--------||
B|o-----------|-------o||
G|--17--------|-16-----||
D|--17--------|-16-----||
A|o--0--------|--0----o||
E|------------|--------||


[Guitar Solo]

       |-3-| |----6----|
  S. T S S S S S S S S S S a  E.  +E  S S

e|------------------------5------------8-9-|
B|--------------------5-7---8S10--(10)-----|
G|------------2-2-5-6----------------------|
D|--------2-4------------------------------|
A|-0--3-4----------------------------------|
E|-----------------------------------------|


                      |-----------3-----------|
    S S  S S  a      +E   a      +E   a      +E   +S   +S  S S  S S S  S
e|-10p9-10p8-10b12==(12)-10b12==(12)-10b12==(12)-(12)r(10)-8-9-10-8-9-----|
B|--------------------------------------------------------------------10--|
G|------------------------------------------------------------------------|
D|------------------------------------------------------------------------|
A|------------------------------------------------------------------------|
E|------------------------------------------------------------------------|


    a      +S   S  S  S  S  S S S S S S  S  S  S  a      +e
e|--------------------------------------------12-12b14==(14)-|
B|-10b13==(10)-13-13-13-13-10---8---8-8----10----------------|
G|--------------------------------0-----11-------------------|
D|-----------------------------------------------------------|
A|-----------------------------------------------------------|
E|-----------------------------------------------------------|


                                          ~~~~
                    |-----3-----|
    a      +E.  S  +E       E  +E        +Q    T  T  T  T  S  S
e|-12b14==(14)-12-(12)pb14-12-(12)pb14==(14)--14r12p10----10----|
B|-----------------------------------------------------13----13-|
G|--------------------------------------------------------------|
D|--------------------------------------------------------------|
A|--------------------------------------------------------------|
E|--------------------------------------------------------------|


       |--3--|           |--3--|           |--3--|           |--3--|
    a  S  S  S  S  S  a  S  S  S  S  S  a  S  S  S  S  S  a  S  S  S  S  S
e|-------------------------------------------------------------------------|
B|-10h13p10----10-13-10h13p10----10-13-10h13p10----10-13-10h13p10----10-13-|
G|----------12----------------12----------------12----------------12-------|
D|-------------------------------------------------------------------------|
A|-------------------------------------------------------------------------|
E|-------------------------------------------------------------------------|


    |------6-------|  |--3--|        |------6-------|  |--3--|
    S  S  S  S  S  S  S  S  S  S  S  S  S  S  S  S  S  S  S  S  S  S
e|-------------------------------------------------------------------|
B|-10-12-10----10-13-10-12-10----10-13-10-12-10----10-13-10-12-10-10-|
G|----------11----------------11----------------11-------------------|
D|-------------------------------------------------------------------|
A|-------------------------------------------------------------------|
E|-------------------------------------------------------------------|


                                      |--3--|
    a      +E.  a      +S   +E   +E   E  E  E  S  S  S  S
e|------------------------------------------------------------|
B|-13b17==(17)-13b17==(17)-(17)r(13)p10----13p10----10-13b17==|
G|--------------------------------------12-------12-----------|
D|------------------------------------------------------------|
A|------------------------------------------------------------|
E|------------------------------------------------------------|


                                         ~~~
    +s   S  E  a      +S   +S   S  S  S  E. E a    +S  S
e|-------------------------------------------------------|
B|-(17)-15-17-13b17==(17)r(13)-10----13-10-------------5-|
G|--------------------------------12----------7b9==(9)---|
D|-------------------------------------------------------|
A|-------------------------------------------------------|
E|-------------------------------------------------------|


                    |-3-|
   E. S +E  E +S. T S S S S s s s
e|--------------------------------|
B|------------------------------5-|
G|------------------------2-4-6---|
D|--------------------2-4---------|
A|-0--------0-(0)-2h4-------------|
E|----3-(3)-----------------------|


   S a  E.  E  a      +E   +S   S  E  S  S S  S
e|-5-------------------------------------------------|
B|---8S10--10-10b13==(13)-(13)-10-13-10-13---11b13===|
G|---------------------------------------------------|
D|---------------------------------------------------|
A|---------------------------------------------------|
E|---------------------------------------------------|


    +Q    +E.  S  S. T E   S S S S   S S S S S S S S S S S S S S S S
e|---------------------------------|---------------------------------|
B|-(13)--(13)-13r10--8----/8-8-8-8-|-8-8-8-8-8-8-8-8-8-8-8-8-8-8-8-8-|
G|---------------------9\-/9-9-9-9-|-9-9-9-9-9-9-9-9-9-9-9-9-9-9-9-9-|
D|---------------------------------|---------------------------------|
A|---------------------------------|---------------------------------|
E|---------------------------------|---------------------------------|


    S  S  S  S  S  S  S  S  S  S  S  S  S  S  S  S
e|-14-12----14-12----14-12----14-12----14-12----12-|
B|-------13-------13-------13-------13-------13----|
G|-------------------------------------------------|
D|-------------------------------------------------|
A|-------------------------------------------------|
E|-------------------------------------------------|


    a      +S   S  S  S  S  S  S  S  S  S  E  Q
e|-------------15----15----15----15----15---------|
B|-15b17==(15)----17----17----17----17----17\-----|
G|------------------------------------------------|
D|------------------------------------------------|
A|------------------------------------------------|
E|------------------------------------------------|


  2/4       4/4
   Q  S E.   Q  Q  H      H    Q  S E.
e|---------|------------|--------------|
B|------7--|-5----------|-----------7--|
G|------7--|-6----------|-----------7--|
D|------7--|-7----------|-----------7--|
A|------5--|-7----------|-----------5--|
E|---------|-5----------|--------------|


   Q   Q  H      H    Q  S E.   Q  Q  H
e|-------------|--------------|------------|
B|-5\----------|-----------7--|-5----------|
G|-6\----------|-----------7--|-6----------|
D|-7\----------|-----------7--|-7----------|
A|-7\----------|-----------5--|-7----------|
E|-5\----------|--------------|-5----------|


   H    Q  S E.   Q   Q  Q  S E.
e|--------------|----------------|
B|-----------7--|-5\----------7--|
G|-----------7--|-6\----------7--|
D|-----------7--|-7\----------7--|
A|-----------5--|-7\----------5--|
E|--------------|-5\-------------|


  7/4                              5/4
   E S S +E  E S E. Q  Q  Q  S E.   E S S +E  E S E. H
e|--------------------------------|------------------------|
B|-5---7-(7)-5---7--5----------7--|-5---7-(7)-5---7--5\----|
G|-6---7-(7)-6---7--6----------7--|-6---7-(7)-6---7--6\----|
D|-7---7-(7)-7---7--7----------7--|-7---7-(7)-7---7--7\----|
A|-7---5-(5)-7---5--7----------5--|-7---5-(5)-7---5--7\----|
E|-5---------5------5-------------|-5---------5------5\----|


  4/4
 Riff 1
      ~
   Q  Q  E. S S s E
e|------------------*|
B|--------------3---*|
G|--------------4---*|
D|-------0--1-2-5---*|
A|-0--3---------5---*|
E|--------------3---*|



************************************

| b    Bend
| ~    Vibrato
| \    Slide down
| (n)  Ghost note
| /    Slide up
| h    Hammer-on
| p    Pull-off
| pb   Pre-bend
| x    Dead note
| s    Slide
| r    Release
| *    part repeating

************************************

            
            
Suggest correction
Creating personal tab
Creating personal tab
You can edit any tab online and save it as your Personal.

You can edit, replace or remove any tab part or add personal notes – all changes will be seen only by you.

Personal tabs can be accessed anytime from any device, even offline.
Learn more »
comments
print report bad tab
2 comments total.
0 reply
lzfan57 10 Aug 27, 2007 04:41 PM

the verse is wrong but every thing else is good

0 reply
rock freebase 31 Apr 13, 2008 07:46 AM

The solo isn't correct, Jimmy bends the string behind the nut to make the 5th to the 9th bend on the G string in the first section. Also the rest of the solo is kind of close(ish) but no cigar I'm afraid. Still, pretty good compared to some of the other tabs though.

guest
You may want to rate the tab now too:
select rating
Wanna post a correction for this tab? Suggest correction