Oops, an error
Loading. Please wait.

Hey Hey What Can I Do Tab

version 1
version 1

Whole song

Interactive

Video

240,717 views 174 this week
14 commentsread comments
1 2 3 4 5
x 21
add to favorites
launch autoscroll
font size
0
reset
how to read this tab
guitar tuner
Autoscroll
slow
fast
+/-
esc
set tempo
stop
Help us to improve Ultimate-Guitar.com Take our survey!
×
Hey Hey What Can I Do
Led Zeppelin

Tune all strings 3/4 step down from 
standard tuning to match recorded tuning
Tempo   76
Time Signature   4/4 & 3/4


 
 [Intro]        
                     >
 | 1 e & a 2 e & a 3 e & a 4 e & a | 1 e & a 2 e & a 3 e & a 4 e & a |
e|---------------------------------|---------------------------------|
B|---------------------------------|-2-------------------------------|
G|---------------------------------|-2-----------------------2---2-2-|
D|-------------------------2---2-4-|-2---2-2-2---2-2-2---2-2-2---2-4-|
A|-------------------------3h4-0---|-----0-0-0---0-0-0---0-0-3h4-0---|
E|---------------------------------|---------------------------------|

   >                                >
 | 1 e & a 2 e & a 3 e & a 4 e & a | 1 e & a 2 e & a 3 e & a 4 e & a |
e|---------------------------------|---------------------------------|
B|-2---------------------------2-2-|-2---------------------------2-2-|
G|-2-----------------------2---2-2-|-2-----------------------2---2-2-|
D|-2---2-2-2---2-2-2---2-2-2---2-4-|-2---2-2-2---2-2-2---2-2-2---2-4-|
A|-0---0-0-0---0-0-0---0-0-3h4-0---|-0---0-0-0---0-0-0---0-0-3h4-0---|
E|---------------------------------|---------------------------------|

  >       >
| 1 e & a 2 e & a 3 e & a | 1 e & a 2 e & a 3 e & a 4 e & a | 
e|---------------3(3)3---0-|-2--(2)-(2)-(2)-(2)-(2)-(2)-(2)--|
B|-2-------2-----3(3)3---0-|-3--(3)-(3)-(3)-(3)-(3)-(3)-(3)--|
G|-2-------2-----4(4)4---0-|-2--(2)-(2)-(2)-(2)-(2)-(2)-(2)--|
D|-2---2-2-2-2-2-5(5)5-----|-4--(4)-(4)-(4)-(4)-(4)-(4)-(4)--|
A|-0---0-0-0-0-0-----------|---------------------------------|
E|-------------------------|---------------------------------|


[Verse]

 | 1 e & a 2 e & a 3 e & a 4 e & a | 1 e & a 2 e & a 3 e & a 4 e & a |
e||-------------------------2---2-0-|-2---2-0-2-0-2---2-0-----------0-|
B||-2--(2)--0--(0)--0--(0)--3---3-3-|-3---3-3-3-3-3---3-3-3-3-2-1-2-2-|
G||.2--(2)--1--(1)--0--(0)--2---2-0-|-2---2-0-2-0-2---2-0-2-2-2-2-2-2-|
D||.2--(2)--2--(2)--0--(0)--4-------|---------0---------------2-2-2-2-|
A||-0--(0)--2--(2)--X-------0--(0)--|(0)------------------------------|
E||---------0--(0)--3--(3)----------|---------------------------------|

| 1 e & a 2 e & a 3 e & a 4 e & a | 1 e & a 2 e & a 3 e & a 4 e & a |
e|-5--(5)--4--(4)--3---3-3-2---2-0-|-2-0-2---2-----------------------|
B|-5--(5)--5--(5)--3---3-3-3---3-3-|-3-3-3---3-------2---------------|
G|-6--(6)--4--(4)--4--(4)--2---2-0-|-2-0-2---2-------2---------2-----|
D|-7--(7)--6--(6)--5--(5)----------|-0---0---0---2---2-----2-4-2-----|
A|---------------------------------|-------------------3-4-------3b4-|
E|---------------------------------|---------------------------------|

| 1 e & a 2 e & a 3 e & a 4 e & a | 1 e & a 2 e & a 3 e & a 4 e & a |
e|-----------------3---3-3-2---2-0-|-2-0-2-0-2---2-2-----------------|
B|-2--(2)--0--(0)--3---3-3-3---3-3-|-3-3-3-3-3---3-3-3-3-3-3---------|
G|-2--(2)--1--(1)--0--(0)--2---2-0-|-2-0-2-0-2---2-2-2-2-2-2-2---2-2-|
D|-2--(2)--2--(2)--0--(0)--4-------|-----------------0-0-0-0-2---2-2-|
A|-0--(0)--2--(2)------------------|---------------------------3-4---|
E|---------------------------------|---------------------------------|

| 1 e & a 2 e & a 3 e & a | 1 e & a 2 e & a 3 e & a 4 e & a |
e|-5---0---4---0---2---2-0-|-2--(2)-(2)-(2)-(2)-(2)-(2)-(2)--|
B|-5---5---5---5---2---2-0-|-3--(3)-(3)-(3)-(3)-(3)-(3)-(3)--|
G|-6---6---4---4---2---2---|-2--(2)-(2)-(2)-(2)-(2)-(2)-(2)--|
D|-7---7---6-------4---4---|-0--(0)-(0)-(0)-(0)-(0)-(0)-(0)--|
A|-------------------------|-0--(0)-(0)-(0)-(0)-(0)-(0)-(0)--|
E|-------------------------|---------------------------------|

| 1 e & a 2 e & a 3 e & a 4 e & a | 1 e & a 2 e & a 3 e & a 4 e & a |
e|---------0---R-3(3)2-2-0-2---2-0-|-2-0-2-0-2---2-0-2---2---------0-|
B|-2--(2)--2---R-3(3)3-3-3-3---3-3-|-3-3-3-3-3---3-3-3---3---2-1-2-2-|
G|-2--(2)--2---R-0(0)2-2-0-2---2-2-|-2-------2---2-0-2---2---2-2-2-2-|
D|-2--(2)--2---R-0(0)4-4---4-------|-4-----------------------2-2-2---|
A|-0--(0)--0---R-------------------|---------------------------------|
E|---------------------------------|---------------------------------|

| 1 e & a 2 e & a 3 e & a 4 e & a | 1 e & a 2 e & a 3 e & a 4 e & a |
e|---------0---R-3(3)2-2-0-2---2-0-|-2-0-2-0-2---2-0-2-0-2-0---------|
B|-2--(2)--2---R-3(3)3-3-3-3---3-3-|-3-3-3-3-3---3-3-3-3-3-3-2-1-2-1-|
G|-2--(2)--2---R-0(0)2-2-0-2---2-2-|-2-0-2-2-2---2-0-2-0-2-2-2-2-2-2-|
D|-2--(2)--2---R-0(0)4-4---4-------|-------------------------2-2-2-2-|
A|-0--(0)--0---R-------------------|---------------------------------|
E|---------------------------------|---------------------------------|

| 1 e & a 2 e & a 3 e & a 4 e & a | 1 e & a 2 e & a 3 e & a 4 e & a |
e|---------0---R-3(3)2-2-0-2---2-0-|-2-0-2-0-2---2-0-2---2---------0-|
B|-2--(2)--2---R-3(3)3-3-3-3---3-3-|-3-3-3-3-3---3-3-3---3---2-1-2-2-|
G|-2--(2)--2---R-0(0)2-2-0-2---2-2-|-2-------2---2-0-2---2---2-2-2-2-|
D|-2--(2)--2---R-0(0)4-4---4-------|-4-----------------------2-2-2---|
A|-0--(0)--0---R-------------------|---------------------------------|
E|---------------------------------|---------------------------------|

| 1 e & a 2 e & a 3 e & a 4 e & a | 1 e & a 2 e & a 3 e & a 4 e & a |
e|---------0---R-3(3)2-2-0-2---2-0-|-2-0-2-0-2---2-0-2---2---------0-||
B|-2--(2)--2---R-3(3)3-3-3-3---3-3-|-3-3-3-3-3---3-3-3---3---2-1-2-2-||
G|-2--(2)--2---R-0(0)2-2-0-2---2-2-|-2-------2---2-0-2---2---2-2-2-2.||
D|-2--(2)--2---R-0(0)4-4---4-------|-4-----------------------2-2-2--.||
A|-0--(0)--0---R-------------------|---------------------------------||
E|---------------------------------|---------------------------------||
                                                Repeat last 16 measures
                                                once, then procede below.

| 1 e & a 2 e & a 3 e & a 4 e & a | 1 e & a 2 e & a 3 e & a 4 e & a |
e|-----------------3-3-3-3-2---2-0-|-2---2-0-2-0-2---2-0-----------0-|
B|-2--(2)--0--(0)--3-3-3-3-3---3-3-|-3---3-3-3-3-3---3-3-3-3-2-1-2-2-|
G|-2--(2)--1--(1)--0-0-0-0-2---2-0-|-2---2-0-2-0-2---2-0-2-2-2-2-2-2-|
D|-2--(2)--2--(2)--0-0-0-0-0-------|-X-------0---------------2-2-2-2-|
A|-0--(0)--2--(2)------------------|-0-------------------------------|
E|---------0--(0)------------------|---------------------------------|

| 1 e & a 2 e & a 3 e & a 4 e & a | 1 e & a 2 e & a 3 e & a 4 e & a |
e|-----------------3-3-3-3-2---2-0-|-2-0-2-0-2---0-------------------|
B|-2---2-2-0--(0)--3-3-3-3-3---3-3-|-3-3-3-3-3---3---2---2-2-2-2-----|
G|-2---2-2-1--(1)--2-2-2-2-2---2-0-|-2-0-2-0-2---0---2---2-2-2-2-----|
D|-2---2---2--(2)------------------|---------0---0---2---2-2-4-2-----|
A|-0---0---2--(2)------------------|-----------------4-3-4-------3b4-|
E|---------0--(0)------------------|---------------------------------|

| 1 e & a 2 e & a 3 e & a 4 e & a | 1 e & a 2 e & a 3 e & a 4 e & a |
e|-----------------3-3-3-3-2---2-0-|-2-0-2-0-2---2-0-2---2---------0-|
B|---------0--(0)--3-3-3-3-3---3-3-|-3-3-3-3-3---3-3-3---3---2-1-2-2-|
G|---------1--(1)--4-4-4-4-2---2-0-|-2-------2---2-0-2---2---2-2-2-2-|
D|-2--(2)--2--(2)------------------|-4-----------------------2-2-2---|
A|-0--(0)--2--(2)------------------|---------------------------------|
E|---------0--(0)------------------|---------------------------------|

| 1 e & a 2 e & a 3 e & a | 1 e & a 2 e & a 3 e & a 4 e & a |
e|-5---R---4---R-2-2---R-0-|-2--(2)-(2)-(2)-(2)-(2)-(2)-(2)--|
B|-5---R---5---R-2-2---R-2-|-3--(3)-(3)-(3)-(3)-(3)-(3)-(3)--|
G|-6---R---4---R-2-2---R-2-|-2--(2)-(2)-(2)-(2)-(2)-(2)-(2)--|
D|-7---R---6---R-4-4---R---|-0--(0)-(0)-(0)-(0)-(0)-(0)-(0)--|
A|-7---R-------------------|---------------------------------|
E|-------------------------|---------------------------------|

| 1 e & a 2 e & a 3 e & a 4 e & a | 1 e & a 2 e & a 3 e & a 4 e & a |
 e|-------------R-3(3)2-2-0-2-----0-|-2-0-2-0-2---2-0-2---2---------0-|
B|-2--(2)--2---R-3(3)3-3-3-3-----3-|-3-3-3-3-3---3-3-3---3---2-1-2-2-|
G|-2--(2)--2---R-0(0)2-2-0-2-----0-|-2-------2---2-0-2---2---2-2-2-2-|
D|-2--(2)--2---R-0(0)0-0-0-0-------|-4-----------------------2-2-2---|
A|-0--(0)--0---R-2(2)R-------------|---------------------------------|
E|---------------3(3)R-------------|---------------------------------|

| 1 e & a 2 e & a 3 e & a 4 e & a | 1 e & a 2 e & a 3 e & a 4 e & a |
e|---------0---R-3(3)2-2-0-2---2-0-|-2-0-2-0-2---2-0-2---2---------0-|
B|-2--(2)--2---R-3(3)3-3-3-3---3-3-|-3-3-3-3-3---3-3-3---3---2-1-2-2-|
G|-2--(2)--2---R-0(0)2-2-0-2---2-2-|-2-------2---2-0-2---2---2-2-2-2-|
D|-2--(2)--2---R-0(0)4-4---4-------|-4-----------------------2-2-2---|
A|-0--(0)--0---R-------------------|---------------------------------|
E|---------------------------------|---------------------------------|

| 1 e & a 2 e & a 3 e & a 4 e & a | 1 e & a 2 e & a 3 e & a 4 e & a |
e|---------------3(3)2-2-0-2-----0-|-2-0-2-0-2---2-0-2---2---------0-|
B|-2--(2)--2---R-3(3)3-3-3-3-----3-|-3-3-3-3-3---3-3-3---3---2-1-2-2-|
G|-2--(2)--2---R-0(0)2-2-0-2-----0-|-2-------2---2-0-2---2---2-2-2-2-|
D|-2--(2)--2---R-0(0)0-0---0-------|-4-----------------------2-2-2---|
A|-0--(0)--0---R-2(2)R-------------|---------------------------------|
E|---------------3(3)R-------------|---------------------------------|

| 1 e & a 2 e & a 3 e & a 4 e & a | 1 e & a 2 e & a 3 e & a 4 e & a |
e|---------------3(3)2-2-0-2-----0-|-2-0-2-0-2---2-0-2---2---------0-|
B|-2--(2)--2---R-3(3)3-3-3-3-----3-|-3-3-3-3-3---3-3-3---3---2-1-2-2-|
G|-2--(2)--2---R-0(0)2-2-0-2-----0-|-2-------2---2-0-2---2---2-2-2-2-|
D|-2--(2)--2---R-0(0)0-0---0-------|-4-----------------------2-2-2---|
A|-0--(0)--0---R-2(2)R-------------|---------------------------------|
E|---------------3(3)R-------------|---------------------------------|


[Riff A]

| 1 e & a 2 e & a 3 e & a 4 e & a | 1 e & a 2 e & a 3 e & a 4 e & a |
e|---------0---R-3(3)2-2-0-2---2-0-|-2-0-2-0-2---2-0-2-0-2-0---------|
B|-2--(2)--2---R-3(3)3-3-3-3---3-3-|-3-3-3-3-3---3-3-3-3-3-3-2-1-2-1-|
G|-2--(2)--2---R-0(0)2-2-0-2---2-2-|-2-0-2-0-2-------2-0-2-2-2-2-2-2-|
D|-2--(2)--2---R-0(0)4-4---4-------|-------------------------2-2-2-2-|
A|-0--(0)--0---R-------------------|---------------------------------|
E|---------------------------------|---------------------------------|


[Riff B]

 | 1 e & a 2 e & a 3 e & a 4 e & a | 1 e & a 2 e & a 3 e & a 4 e & a |
e||---------------3(3)2-2-0-2---R-22|-2-000-222-000-222-R-------------||
B||-2--(2)--2---2-3(3)3-3-3-3---R-33|-3-333-333-333-333-R-----------2-||
G||.2--(2)--2---2-0(0)2-2-0-2---R-22|-2-000-222-000-222-R-2---------2.||
D||.2--(2)--2---2-0(0)0-0-0-0---R-00|-0-000-000-000-000-R-2---2-----2.||
A||-0--(0)--0---0-2(2)--------------|---------------------3b4-0-------||
E||---------------------------------|---------------------------------||
                                                                   ^
                                                                Mute at
                                                                this fret
                                                                and strike
                        Repeat last 2 measures
                        3 more times then play
                        Riff A 1 time, Riff B 2
                        times, Riff A 2 times
                        then play the following:


| 1 e & a 2 e & a 3 e & a 4 e & a | 1 e & a 2 e & a 3 e & a 4 e & a |
e|---------0---R-3(3)2-2-0-2---2-0-|-2---2---2---2---5---7---7-R-9---|
B|-2--(2)--2---R-3(3)3-3-3-3---3-3-|-3---3---3---3---6---8---8-R-10--|
G|-2--(2)--2---R-0(0)2-2-0-2---2-0-|-2---2---2---2---5---7---7-R-9---|
D|-2--(2)--2---R-0(0)4-4---4-------|---------------------------------|
A|-0--(0)--0---R-------------------|---------------------------------|
E|---------------------------------|---------------------------------|

| 1 e & a 2 e & a 3 e & a 4 e & a | 1 e & a 2 e & a 3 e & a 4 e & a |
e|(9)--X-------0---0-0-0---2---0---|-2-----------4444
B|(10)-X-------3---3-3-3---3---3---|-3-----------5555
G|(9)--X-------0---0-0-0---2---0---|-2-------2/444---  fades completely out
D|---------0-0-0-------------------|---------4/66----
A|---------3-3(3)-(3)-(3)----------|-----------------
E|---------------------------------|-----------------
      ^
      Mute strings here by bring the picking hand down across
      all strings and at the same time, tap the sound board
      of the guitar with a free finger of the picking hand.



************************************

--R-- rest
--2/4-- slide up
--3(3)-- first note stuck, second note sustained for that beat.
--3h4-- hammer on
--3b4-- bend
> accent
X mute string

************************************
Suggest correction
comments
print report bad tab
14 comments total. Showing first comments.
0 reply
eazyrider 10 Feb 01, 2005 12:00 AM

how u get it to be so perfect
did u use book

+1 reply
classic_rock_90 10 Jul 04, 2007 11:08 AM

awesome tab man...one of my favorite zeppelin songs.

+2 reply
Shifty155 66 Jul 20, 2007 07:35 PM

I hate how they tune Tangerine down 1/4 a step, then they tune Hey Hey down 3/4...

What's the point D:

guest
You may want to rate the tab now too:
select rating
Wanna post a correction for this tab? Suggest correction