Oops, an error
Loading. Please wait.
We have an official Immigrant Song tab made by UG professional guitarists. Check out the tab »
×

Immigrant Song bass

version 4
version 4

Whole song

205 views 3 this week
no commentswrite comment
1 2 3 4 5
3 more votes to show rating
add to favorites
×
Save as Personal and add changes to this tab that will be seen only by you. Learn more ›
×
You can save this tab as Personal to edit and correct it or add notes. All changes will be seen only by you. Learn more »
launch autoscroll
font size
0
reset
guitar tuner
backing track
0:00
0:00
edit
Autoscroll
slow
fast
+/-
esc
set tempo
stop
Author
About this tab version
Certain parts are new. The whole tab is structured and certain notes were missing in the other tabs. Was this info helpful? Yes No
Tuning: Standard (EADG)

[Verse 1]
G|--------------------------------------------|
D|--------------------------------------------|
A|--------------------------------------------|
E|-5\2-0--0-0-0--0-0-0--0-0-0--0-0-0--0-0-0---|

G|--------------------------------------------|
D|--------------------------------------------|
A|--------------------------------------------|
E|-0-0-0--0-0-2/5-----------------------------|



The hammer of the gods, will drive our ships...
  
G|--------------------------------------------|
D|----------4-------------4-------------------|
A|--------------------------------------------|   (x5)
E|-0-2--2-2---2--2-2--2-2---2-----------------|



G|--------------------------------------------|
D|----------4---------------------------------|
A|--------------------------------------------|
E|-0-2--2-2---2--2-2--2-2-2/5\----------------|

G|--------------------------------------------|
D|--------------------------------------------|
A|--------------------------------------------|
E|-0--0-0-0--0-0-0--0-0-0--0-0-0--0-0-0-------|

G|--------------------------------------------|
D|--------------------------------------------|
A|--------------------------------------------|
E|-0-0-0-—0-0-2/5-----------------------------|



G|--------------------------------------------|
D|----------4-------------4-------------------|
A|--------------------------------------------|    (x2)
E|-0-2--2-2---2--2-2--2-2---2-----------------|

[Chorus 1]
On we sweep With threshing oar...
G|--------------------------------------------------------------------------------------------------------|
D|-----------4-5-7-----------4-5-7------------6-7-9-----------6-7-9-------------7-8-10-------------7-8-10-|
A|-----4-5-7-----------4-5-7------------6-7-9-----------6-7-9------------7-8-10-------------7-8-10--------|
E|-5-7-------------5-7--------------7-8-------------7-8-------------8-10---------------8-10---------------|

G|--------------------------------------------|
D|-------------7-8-9-10-----------------------|
A|------7-8-10--------------------------------|
E|-8-10---------------------------------------|


[Pre-Verse]
G|--------------------------------------------|
D|----------4-------------4-------------------|
A|--------------------------------------------|   (x5)
E|-0-2--2-2---2--2-2--2-2---2-----------------|



G|--------------------------------------------|
D|----------4---------------------------------|
A|--------------------------------------------|
E|-0-2--2-2---2--2-2--2-2-2/5\----------------|



[Verse 2]
G|--------------------------------------------|
D|--------------------------------------------|
A|--------------------------------------------|
E|-0--0-0-0--0-0-0--0-0-0--0-0-0--0-0-0-------|

G|--------------------------------------------|
D|--------------------------------------------|
A|--------------------------------------------|
E|-0-0-0-—0-0-2/5-----------------------------|



G|--------------------------------------------|
D|----------4-------------4-------------------|
A|--------------------------------------------|   (x5)
E|-0-2--2-2---2--2-2--2-2---2-----------------|



G|--------------------------------------------|
D|----------4---------------------------------|
A|--------------------------------------------|
E|-0-2--2-2---2--2-2--2-2-2/5\----------------|

G|--------------------------------------------|
D|--------------------------------------------|
A|--------------------------------------------|
E|-0--0-0-0--0-0-0--0-0-0--0-0-0--0-0-0-------|

G|--------------------------------------------|
D|--------------------------------------------|
A|--------------------------------------------|
E|-0-0-0-—0-0-2/5-----------------------------|



G|--------------------------------------------|
D|----------4-------------4-------------------|
A|--------------------------------------------|  (x2)
E|-0-2--2-2---2--2-2--2-2---2-----------------|



[Chorus 2]
On we sweep With threshing oar...
G|--------------------------------------------------------------------------------------------------------|
D|-----------4-5-7-----------4-5-7------------6-7-9-----------6-7-9-------------7-8-10-------------7-8-10-|
A|-----4-5-7-----------4-5-7------------6-7-9-----------6-7-9------------7-8-10-------------7-8-10--------|
E|-5-7-------------5-7--------------7-8-------------7-8-------------8-10---------------8-10---------------|

G|--------------------------------------------|
D|-------------7-8-9-10-----------------------|
A|------7-8-10--------------------------------|
E|-8-10---------------------------------------|



[Outro]
So now you'd better stop...
G|--------------------------------------------|
D|----------4-------------4-------------------|
A|--------------------------------------------| (x4)
E|-0-2--2-2---2--2-2--2-2---2-----------------|

G|---------------------------------------------------------------|
D|----------4-------------4-------------4------------------------|
A|----------------------------------------------------3----------|  (x4)      
E|-0-2--2-2---2--2-2--2-2---2--0-2--2-2---2--2-2--2-2------------|                                     

G|--------------------------------------------|
D|----------4---------------------------------|
A|------------------------3-------------------|     (x4)
E|-0-2--2-2---2--2-2--2-2---------------------|

G|--------------------------------------------|
D|----------4---------------------------------|
A|----------------------3---3-----------------|   (x3)
E|-0-2--2-2---2--2-2--2---2-------------------|

G|--------------------------------------------|
D|----------4---------------------------------|
A|--------------------------------------------|
E|-0-2--2-2---2-0-2---------------------------|


************************************

| \  Slide down
| /  Slide up

************************************

            
            
Suggest correction
Creating personal tab
Creating personal tab
You can edit any tab online and save it as your Personal.

You can edit, replace or remove any tab part or add personal notes – all changes will be seen only by you.

Personal tabs can be accessed anytime from any device, even offline.
Learn more »
Give kudos to tab author, rate the tab!
1 2 3 4 5
comments
print report bad tab
guest
You may want to rate the tab now too:
select rating
Wanna post a correction for this tab? Suggest correction