Oops, an error
Loading. Please wait.

Kashmir Tab

version 2
version 2

Whole song

Interactive

Video

61,044 views 42 this week
7 commentsread comments
1 2 3 4 5
accurate
x 19
add to favorites
launch autoscroll
font size
0
reset
how to read this tab
guitar tuner
Autoscroll
slow
fast
+/-
esc
set tempo
stop
Help us to improve Ultimate-Guitar.com Take our survey!
×
KASHMIR

From the Physical Graffitti Album.

G5
5 5 5 7 5 5 
with DADGAD tuning A5
7 7 7 9 7 7 
with DADGAD tuning 


Gtr I (D A D G A D) - Jimmy Page overdrive electric.
Gtr II (D A D G A D) - Steel string acoustic.
Gtr III (E A D G B E) - Mellotron.
Gtr IV (E A D G B E) - Strings.
Gtr V (E A D G B E) - Guit. overdub.
Gtr VI (E A D G B E) - Violin.

Intro - Verse 1

  Q=80

 4/4

 Gtrs I, II

   S S E E S S E E S S E   E S S E E S S E E S S   E E S S E E S S E E
e|-----------------------|-----------------------|----------------------|
B|-----------------------|-----------------------|----------------------|
G|-2-2-2---2-2-2---3-3-3-|---3-3-3---4-4-4---4-4-|-4---5-5-5---5-5-5----|
D|-0-0-0---0-0-0---0-0-0-|---0-0-0---0-0-0---0-0-|-0---0-0-0---0-0-0----|
A|-5-5-5---5-5-5---5-5-5-|---5-5-5---5-5-5---5-5-|-5---5-5-5---5-5-5----|
E|---------------0-------|---------0-------------|---0---------------0--|

     S S E E S S E E S S E   E S S E E S S E E S S   E E S S E E S S E E 4x
e|------------------------|-----------------------|---------------------||
B|o-----------------------|-----------------------|--------------------o||
G|--7-7-7---2-2-2---3-3-3-|---3-3-3---4-4-4---4-4-|-4---5-5-5---5-5-5---||
D|--0-0-0---0-0-0---0-0-0-|---0-0-0---0-0-0---0-0-|-0---0-0-0---0-0-0---||
A|o-5-5-5---5-5-5---5-5-5-|---5-5-5---5-5-5---5-5-|-5---5-5-5---5-5-5--o||
E|----------------0-------|---------0-------------|---0---------------0-||

   Gtr I
   S S E E S S E E S S E   E S S E E S S E E S S   E E S S E E S S E S S
e|-----------------------|-----------------------|------------------------||
B|-----------------------|-----------------------|------------------------||
G|-7-7-7---2-2-2---3-3-3-|---3-3-3---4-4-4---4-4-|-4---5-5-5---5-5-5------||
D|-0-0-0---0-0-0---0-0-0-|---0-0-0---0-0-0---0-0-|-0---0-0-0---0-0-0-0----||
A|-5-5-5---5-5-5---5-5-5-|---5-5-5---5-5-5---5-5-|-5---5-5-5---5-5-5-0-0--||
E|---------------0-------|---------0-------------|---0---------------0-0--||
|
 | Gtr II
 | S S E E S S E E S S E   E S S E E S S E E S S   E E S S E E S S E E
e|-----------------------|-----------------------|------------------------||
B|-----------------------|-----------------------|------------------------||
G|-7-7-7---2-2-2---3-3-3-|---3-3-3---4-4-4---4-4-|-4---5-5-5---5-5-5------||
D|-0-0-0---0-0-0---0-0-0-|---0-0-0---0-0-0---0-0-|-0---0-0-0---0-0-0------||
A|-5-5-5---5-5-5---5-5-5-|---5-5-5---5-5-5---5-5-|-5---5-5-5---5-5-5-5----||
E|---------------0-------|---------0-------------|---0---------------0----||

[Chorus]
   Gtrs I, II
    E.      S  +E   E    +S   E.   E   E   E.   S +E  E +S  E.   S S E
e|-12------12-(12)-10---(10)-10----7---7-|-5----5-(5)-3-(3)-3------------|
B|--0-------0--(0)--0----(0)--0----0---0-|-0----0-(0)-0-(0)-0------------|
G|-12------11-(11)-10---(10)--9----7---6-|-5----4-(4)-3-(3)-2------------|
D|--0-------0--(0)--0----(0)--0----0---0-|-0----0-(0)-0-(0)-0----3-2-0---|
A|---------------------------------------|-------------------------------|
E|---------------------------------------|-------------------------------|

 | Gtr V
 |  S  S E      E   S S   E      E S S E   E  S S  E  E  S  S  E E   S S
e|---------------------------------------|-------------------------------|
B|---------------------------------------|-------------------------------|
G|--7--7-7----------2-2---2--------3-3-3-|----3-3--3-----4--4--4-----4-4-|
D|--0--0-0----------0-0---0--------0-0-0-|----0-0--0-----0--0--0-----0-0-|
A|---------------------------------------|-------------------------------|
E|---------------------------------------|-------------------------------|
 -Rhy Fig 1 (both Gtrs)

    E.    S  +E     E  +S   E.     E E   E.     S +E  E   +S  E.   S S E
e|-12----12-(12)---10-(10)-10------7-7-|-5------5-(5)-3---(3)-3----------||
B|--0-----0--(0)----0--(0)--0------0-0-|-0------0-(0)-0---(0)-0----------||
G|-12----11-(11)---10-(10)--9------7-6-|-5------4-(4)-3---(3)-2----------||
D|--0-----0--(0)----0--(0)--0------0-0-|-0------0-(0)-0---(0)-0----3-2-0-||
A|-------------------------------------|---------------------------------||
E|-------------------------------------|---------------------------------||
|
 |  E  E      S  S  E   E      S S E E   S  S E    E  S S  E     E S S E
e|-------------------------------------|---------------------------------||
B|-------------------------------------|---------------------------------||
G|--4---------5--5--5----------5-5-5---|-7--7-7-------2-2--2-------3-3-3-||
D|--0---------0--0--0----------0-0-0---|-0--0-0-------0-0--0-------0-0-0-||
A|-------------------------------------|---------------------------------||
E|-------------------------------------|---------------------------------||
                                                          end Rhy Fig 1-|

[Verse 2]
   Gtrs I, II
   E S S E E S S E E S S   E E S S E E S S E E   S S E E S S E E S S E
e|-----------------------|---------------------|-----------------------|
B|-----------------------|---------------------|-----------------------|
G|---3-3-3---4-4-4---4-4-|-4---5-5-5---5-5-5---|-7-7-7---2-2-2---3-3-3-|
D|---0-0-0---0-0-0---0-0-|-0---0-0-0---0-0-0---|-0-0-0---0-0-0---0-0-0-|
A|---5-5-5---5-5-5---5-5-|-5---5-5-5---5-5-5---|-5-5-5---5-5-5---5-5-5-|
E|---------0-------------|---0---------------0-|---------------0-------|

     E S S E E S S E E S S
e|------------------------|
B|o-----------------------|
G|----3-3-3---4-4-4---4-4-|
D|----0-0-0---0-0-0---0-0-|
A|o---5-5-5---5-5-5---5-5-|
E|----------0-------------|
 |
 |   Gtr VI
 |   W
e|------------------------|
B|o-----------------------|
G|------------------------|
D|------------------------|
A|o-----------------------|
E|------------------------|

   E E S S E E   S S E   S S   S S E E S S E E S S E  3x
e|---------------------------|------------------------||
B|---------------------------|-----------------------o||
G|-4---5-5-5-----5-5-5-------|-7-7-7---2-2-2---3-3-3--||
D|-0---0-0-0-----0-0-0-----0-|-0-0-0---0-0-0---0-0-0--||
A|-5---5-5-5-----5-5-5-----0-|-5-5-5---5-5-5---5-5-5-o||
E|---0-------------------0-0-|---------------0--------||
 |
 | H         S S S S S S S S   W                      3x
e|-------------5-4-5-7-5-4-5-|------------------------||
B|---------------------------|-7---------------------o||
G|---------------------------|------------------------||
D|---------------------------|------------------------||
A|---------------------------|-----------------------o||
E|---------------------------|------------------------||

   Gtrs I, II
   E S S E E S S E E S S   E E S S E E S S E S S
e|-----------------------|-----------------------||
B|-----------------------|-----------------------||
G|---3-3-3---4-4-4---4-4-|-4---5-5-5---5-5-5-----||
D|---0-0-0---0-0-0---0-0-|-0---0-0-0---0-0-0-----||
A|---5-5-5---5-5-5---5-5-|-5---5-5-5---5-5-5-0-0-||
E|---------0-------------|---0---------------0-0-||


[Chorus] - Rhy Fig 1
   Gtrs I, II
   E S S E E S S E E S S   E E S S E E S S E S S
e|-----------------------|-----------------------|
B|-----------------------|-----------------------|
G|---3-3-3---4-4-4---4-4-|-4---5-5-5---5-5-5-----|
D|---0-0-0---0-0-0---0-0-|-0---0-0-0---0-0-0-----|
A|---5-5-5---5-5-5---5-5-|-5---5-5-5---5-5-5-0-0-|
E|---------0-------------|---0---------------0-0-|

                               9/8
   Gtrs I, II
    E.  S  +E   E  +S   E. E E    E.  E.  E. E. S S S S S S
e|-12--12-(12)-10-(10)-10--7-7-|--5---5---3--3--------------||
B|--0---0--(0)--0--(0)--0--0-0-|--0---0---0--0--------------||
G|-12--11-(11)-10-(10)--9--7-6-|--5---4---3--2--------------||
D|--0---0--(0)--0--(0)--0--0-0-|--0---0---0--0--3-2-0-----0-||
A|-----------------------------|----------------------0-2---||
E|-----------------------------|----------------------------||
|
 | Gtr V
 |  E.  S  +E   E  +S   E. E E    E.  E.  E. E. S S S S S S
e|-10--10-(10)--8--(8)--8--5-5-|----------------------------||
B|--8---7--(7)--6--(6)--5------|------0------6--------------||
G|--7---7--(7)--5--(5)--5--7-6-|--0---0--10-----------------||
D|--7---7--(7)--7--(7)--7--7-7-|-17--17---8--7--------------||
A|-----------------------------|-15------12--8--8-7-5-----5-||
E|-----------------------------|-17--17--13-----------5-7---||


[Middle]
    4/4
     Gtrs I, II, V
     E E E E E E E E   +E   E Q  H
e|------------------|----------------|
B|o-----------------|----------------|
G|------------------|----------------|
D|--2-----2---2---7-|-(7)\-2---------|
A|o-0-----0---0---0-|-(0)\-0---------|
E|------------------|----------------|

   E E E E E E E E   +E   E Q  E S S S S S S  5x
e|-----------------|--------------------------||
B|-----------------|-------------------------o||
G|-----------------|--------------------------||
D|-2-----2---2---7-|-(7)\-2------3-2-0-----0--||
A|-0-----0---0---0-|-(0)\-0------------0-2---o||
E|-----------------|--------------------------||

     Gtrs I, II
      E.  S  +E   E  +S   E. E E    E.  S  +E  E +S  E. S S E
e|--12--12-(12)-10-(10)-10--7-7-|--5---5--(5)-3-(3)-3---------||
B|o--0---0--(0)--0--(0)--0--0-0-|--0---0--(0)-0-(0)-0--------o||
G|--12--11-(11)-10-(10)--9--7-6-|--5---4--(4)-3-(3)-2---------||
D|---0---0--(0)--0--(0)--0--0-0-|--0---0--(0)-0-(0)-0--3-2-0--||
A|o-----------------------------|----------------------------o||
E|------------------------------|-----------------------------||
 |
 |   Gtr V
 |    E.  S  +E   E  +S   E. E E    E.  S  +E  E +S  E. S S E
e|--10--10-(10)--8--(8)--8--5-5-|-----------------------------||
B|o--8---7--(7)--6--(6)--5------|------0--(0)-6-(6)-6--------o||
G|---7---7--(7)--5--(5)--5--7-6-|--0---0--(0)-----------------||
D|---7---7--(7)--7--(7)--7--7-7-|-17--17-(17)-7-(7)-7---------||
A|o-----------------------------|-15----------8-(8)-8--8-7-5-o||
E|------------------------------|-17--17-(17)-----------------||


[Interlude]

  Gtrs I, II
  G5
   Q  E. S S S E +E E   +E     E +E  E +Q     S  S  E
   |  |  | | | |  | |    |     |  |  |  |     |  |  |
   /  /  / / / /  / /    /     /  /  /  /     /  /  /
   Gtr III
    W                     S  S  E  E  E  E  E  S  S  S  S
e|---------------------|-----------------------0----------|
B|---------------------|--------------------3-----3--2--3-|
G|--0------------------|--2--3--2--0--2--3----------------|
D|---------------------|----------------------------------|
A|---------------------|----------------------------------|
E|---------------------|----------------------------------|
|
 | Gtr IV
 |  W                     S  S  E  E  E  E  E  S  S  S  S
e|---------------------|-------------------10-12-10----10-|
B|---------------------|-10-11-10----10-11----------14----|
G|-12------------------|----------12----------------------|
D|---------------------|----------------------------------|
A|---------------------|----------------------------------|
E|---------------------|----------------------------------|

  A5
   Q   E. S S S E +E     E
   |   |  | | | |  |     |
   /   /  / / / /  /     /
    H.              S  S  S  S
e|--0--------------------------|
B|------------------3--2--3--2-|
G|-----------------------------|
D|-----------------------------|
A|-----------------------------|
E|-----------------------------|
|
 |  H.              S  S  S  S
e|-12--------------10----10----|
B|--------------------14----14-|
G|-----------------------------|
D|-----------------------------|
A|-----------------------------|
E|-----------------------------|

  A5                              G5
   +E  E H              E  S  S    Q   E. S S S E +E E
    |  | |              |  |  |    |   |  | | | |  | |
    /  / /              /  /  /    /   /  / / / /  / /
    +H        S  S  S S  E  S  S    H.              Q
e|-------------------------------|----------------------|
B|--(2)--------------------------|----------------------|
G|------------3--2--2----2--2--2-|--0-------------------|
D|-------------------------------|----------------------|
A|-------------------------------|----------------------|
E|-------------------------------|----------------------|
|
 |  +H        S  S  S S  E  S  S    H.              Q
e|-------------------------------|----------------------|
B|-(14)------11-10-10---10-10-10-|----------------------|
G|-------------------------------|-12-------------------|
D|-------------------------------|----------------------|
A|-------------------------------|----------------------|
E|-------------------------------|----------------------|

  +E    E    +E  E +Q           S  S  E
   |    |     |  |  |           |  |  |
   /    /     /  /  /           /  /  /
    S  E    S  E  E  S  S  S  S  S  S  E
e|----------------0--------0--1--------0--|
B|----------2--3-----2--3--------3--2-----|
G|--2--3----------------------------------|
D|----------------------------------------|
A|----------------------------------------|
E|----------------------------------------|
|
 |  S  E    S  E  E  S  S  S  S  S  S  E
e|------------10-12----10-12-13-10----12--|
B|-10-11---14-------14-------------14-----|
G|----------------------------------------|
D|----------------------------------------|
A|----------------------------------------|
E|----------------------------------------|

  A5
    Q    E.        S   S  S E  +E      E
    |    |         |   |  | |   |      |
    /    /         /   /  / /   /      /
    +Q    S   S  S  S  +Q       +S   S  S  S
e|--(0)-------------0--(0)------(0)--1-------|
B|--------3---2-------------------------3----|
G|---------------2-------------------------3-|
D|-------------------------------------------|
A|-------------------------------------------|
E|-------------------------------------------|
|
 |  +Q    S   S  S  S  +Q       +S   S  S  S
e|-(12)--10--------12-(12)-----(12)-13-------|
B|-----------14------------------------15----|
G|--------------14------------------------15-|
D|-------------------------------------------|
A|-------------------------------------------|
E|-------------------------------------------|

                                       G5
  +E E  H                    E  S  S    Q   E. S S S E +E  E
   | |  |                    |  |  |    |   |  | | | |  |  |
   / /  /                    /  /  /    /   /  / / / /  /  /
    Q    S  S  E  +E   S  S  +E.    S    H.              E  S  S
e|------------------------------------|--------------------------|
B|------------------------------------|--------------------------|
G|--2----3--0--2--(2)--0--------------|--0------------------2--3-|
D|------------------------3--(3)----3-|--------------------------|
A|------------------------------------|--------------------------|
E|------------------------------------|--------------------------|
|
 |  Q    S  S  E  +E   S  S  +E.    S    H.              E  S  S
e|------------------------------------|--------------------------|
B|------------------------------------|--------------------10-11-|
G|-14---15-12-14-(14)-12-10-(10)---10-|-12-----------------------|
D|------------------------------------|--------------------------|
A|------------------------------------|--------------------------|
E|------------------------------------|--------------------------|

  G5                            A5
  +E E +E  E +Q     S S  E      S  E.        E.        S S S E +E    E
   | |  |  |  |     | |  |      |  |         |         | | | |  |    |
   / /  /  /  /     / /  /      /  /         /         / / / /  /    /
    E E  E  E  E  E  S S  S  S   S  S   S  S  S   S  S  S Q      S S  S  S
e|---------------------------0-|--------0--1--0----------------------------|
B|---------------------2--3----|-2--3-------------3--5--3-2------3-2-------|
G|--2-0--2--3--0--2--3---------|--------------------------------------3--2-|
D|-----------------------------|-------------------------------------------|
A|-----------------------------|-------------------------------------------|
E|-----------------------------|-------------------------------------------|
|
 |  E E  E  E  E  E  S S  S  S   S  S   S  S  S   S  S  S Q      S S  S  S
e|---------------------9-10-11-|-9-10--12-13-12--10-12-10-9-----10-9-------|
B|-10-8-10-11-------11---------|-------------------------------------11-10-|
G|------------12-10------------|-------------------------------------------|
D|-----------------------------|-------------------------------------------|
A|-----------------------------|-------------------------------------------|
E|-----------------------------|-------------------------------------------|

   +E   E      Q         +E   E    E  S S
    |   |      |          |   |    |  | |
    /   /      /          /   /    /  / /
    +E   S  S  +E   S  S  +E   S S +E  S S
e|-------------------------------------------|
B|-------------------------------------------|
G|--(2)--3--0--(0)--2----------0-------------|
D|---------------------4--(4)----2-(2)-0-4---|
A|-------------------------------------------|
E|-------------------------------------------|
|
 |  +E   S  S  +E   S  S  +E   S S +E  S S
e|-------------------------------------------|
B|-(10)-11---------10--------------------7---|
G|---------12-(12)----11-(11)-12-9-(9)-7-----|
D|-------------------------------------------|
A|-------------------------------------------|
E|-------------------------------------------|

  G5
  Q   E. S S S E +E E   +E   E   +E  E +Q         S  S  S S
  |   |  | | | |  | |    |   |    |  |  |         |  |  | |
  /   /  / / / /  / /    /   /    /  /  /         /  /  / /
   H.              Q      S S S S +Q     S  S  S S S  S  E
e|---------------------|-----------------1--0------------0---|
B|---------------------|-----------------------3---2--3------|
G|-0-------------------|--2-3-2-0-(0)------------------------|
D|---------------------|-------------------------------------|
A|---------------------|-------------------------------------|
E|---------------------|-------------------------------------|
|
 | H.              Q      S S S S +Q     S  S  S S S  S  E
e|---------------------|--5-6-5-3-(3)---13-12-10---9-10-12---|
B|-8-------------------|-------------------------------------|
G|---------------------|-------------------------------------|
D|---------------------|-------------------------------------|
A|---------------------|-------------------------------------|
E|---------------------|-------------------------------------|

  A5
    Q          E. S  S S  E     +E  E
    |          |  |  | |  |      |  |
    /          /  /  / /  /      /  /
    +S   S S  S Q     S S  S  S  +Q
e|--(0)---------------------------------|
B|-------3-2--3-2-------2---------------|
G|--------------------3----3--2--(2)----|
D|--------------------------------------|
A|--------------------------------------|
E|--------------------------------------|
|
 |  +S   S S  S Q     S S  S  S  +Q
e|-(12)-10-9-10-9-------9---------------|
B|-------------------11---11-10-(10)----|
G|--------------------------------------|
D|--------------------------------------|
A|--------------------------------------|
E|--------------------------------------|

  A5
   +E  E  H                     E  S  S
    |  |  |                     |  |  |
    /  /  /                     /  /  /
    +Q     S  S  S  S S  S  S S  E.    S
e|---------0--1-----0--------------------|
B|---------------3----2--3----2----------|
G|--(2)---------------------3----2-----2-|
D|---------------------------------------|
A|---------------------------------------|
E|---------------------------------------|
|
 |  +Q     S  S  S  S S  S  S S  E.    S
e|--------12-13-10-12-9-10----9----------|
B|-(10)--------------------11---10----10-|
G|---------------------------------------|
D|---------------------------------------|
A|---------------------------------------|
E|---------------------------------------|

  G5
  Q   E.     S  S  S  E  +E  S  S    +E   E     +E   E     +Q    S  S  E
  |   |      |  |  |  |   |  |  |     |   |      |   |      |    |  |  |
  /   /      /  /  /  /   /  /  /     /   /      /   /      /    /  /  /
   Q.      S  S  S  S  E  +E  S  S    +E   S  S  +E   S  S  +Q    S  S  E
e|---------1--0--1--0--------------|-------0--1--(1)--0--1--(1)---0-----0--|
B|---------------------3--(3)-2--3-|--(3)----------------------------3-----|
G|-0-------------------------------|---------------------------------------|
D|---------------------------------|---------------------------------------|
A|---------------------------------|---------------------------------------|
E|---------------------------------|---------------------------------------|
|
 | Q.      S  S  S  S  E  +E  S  S    +E   S  S  +E   S  S  +Q    S  S  E
e|--------13-12-13-12-10-(10)-9-10-|-(10)-12-13-(13)-12-13-(13)--12-10-12--|
B|-8-------------------------------|---------------------------------------|
G|---------------------------------|---------------------------------------|
D|---------------------------------|---------------------------------------|
A|---------------------------------|---------------------------------------|
E|---------------------------------|---------------------------------------|

  A5
    Q   E. S  S  S E    +E E    +E  E E E +E S S E E
    |   |  |  |  | |     | |     |  | | |  | | | | |
    /   /  /  /  / /     / /     /  / / /  / / / / /
    +Q   Q     E.      S  Q      +W
e|--(0)-----------------------|-----------------------||
B|-------2--------------------|-----------------------||
G|-------------2-------3--2---|--(2)------------------||
D|----------------------------|-----------------------||
A|----------------------------|-----------------------||
E|----------------------------|-----------------------||
|
 |  +Q   Q     E.      S  Q      +W
e|-(12)--9--------------------|-----------------------||
B|----------------------------|-----------------------||
G|------------10------11-10---|-(10)------------------||
D|----------------------------|-----------------------||
A|----------------------------|-----------------------||
E|----------------------------|-----------------------||

   Gtrs I, II
   S S E E S S E E S S E   E S S E E S S E E S S
e|-----------------------|-----------------------|
B|-----------------------|-----------------------|
G|-7-7-7---2-2-2---3-3-3-|---3-3-3---4-4-4---4-4-|
D|-0-0-0---0-0-0---0-0-0-|---0-0-0---0-0-0---0-0-|
A|-5-5-5---5-5-5---5-5-5-|---5-5-5---5-5-5---5-5-|
E|---------------0-------|---------0-------------|

   E E S S E E  S S E  E    S S E E S S E E S S E
e|------------------------|------------------------|
B|------------------------|------------------------|
G|-4---5-5-5----5-5-5-----|-7-7-7---2-2-2---3-3-3--|
D|-0---0-0-0----0-0-0-----|-0-0-0---0-0-0---0-0-0--|
A|-5---5-5-5----5-5-5-----|-5-5-5---5-5-5---5-5-5--|
E|---0--------------------|---------------0--------|

[Verse 3]
   E S S E E S S E E S S   E E S S E E S S E E   S S E E S S E E S S E
e|-----------------------|---------------------|-----------------------|
B|-----------------------|---------------------|-----------------------|
G|---3-3-3---4-4-4---4-4-|-4---5-5-5---5-5-5---|-7-7-7---2-2-2---3-3-3-|
D|---0-0-0---0-0-0---0-0-|-0---0-0-0---0-0-0---|-0-0-0---0-0-0---0-0-0-|
A|---5-5-5---5-5-5---5-5-|-5---5-5-5---5-5-5---|-5-5-5---5-5-5---5-5-5-|
E|---------0-------------|---0-----------------|---------------0-------|

     E S S E E S S E E S S
e|------------------------|
B|o-----------------------|
G|----3-3-3---4-4-4---4-4-|
D|----0-0-0---0-0-0---0-0-|
A|o---5-5-5---5-5-5---5-5-|
E|----------0-------------|
|
 |   Gtr VI
 |   W
e|------------------------|
B|o-----------------------|
G|------------------------|
D|------------------------|
A|o-----------------------|
E|------------------------|

   E E S S E E   S S E   E     S S E E S S E E S S E  3x
e|---------------------------|------------------------||
B|---------------------------|-----------------------o||
G|-4---5-5-5-----5-5-5-------|-7-7-7---2-2-2---3-3-3--||
D|-0---0-0-0-----0-0-0-------|-0-0-0---0-0-0---0-0-0--||
A|-5---5-5-5-----5-5-5-------|-5-5-5---5-5-5---5-5-5-o||
E|---0-----------------------|---------------0--------||
|
 | H         S S S S S S S S   W                      3x
e|-------------5-4-5-7-5-4-5-|-2----------------------||
B|---------------------------|-----------------------o||
G|---------------------------|------------------------||
D|---------------------------|------------------------||
A|---------------------------|-----------------------o||
E|---------------------------|------------------------||

   Gtrs I, II
   E S S E E S S E E S S   E E S S E E S S E E
e|-----------------------|---------------------||
B|-----------------------|---------------------||
G|---3-3-3---4-4-4---4-4-|-4---5-5-5---5-5-5---||
D|---0-0-0---0-0-0---0-0-|-0---0-0-0---0-0-0---||
A|---5-5-5---5-5-5---5-5-|-5---5-5-5---5-5-5---||
E|---------0-------------|---0-----------------||

[Chorus] - Rhy Fig 1
   E S S E E S S E E S S   E E S S E E S S E E   S S E E S S E E S S E
e|-----------------------|---------------------|-----------------------|
B|-----------------------|---------------------|-----------------------|
G|---3-3-3---4-4-4---4-4-|-4---5-5-5---5-5-5---|-7-7-7---2-2-2---3-3-3-|
D|---0-0-0---0-0-0---0-0-|-0---0-0-0---0-0-0---|-0-0-0---0-0-0---0-0-0-|
A|---5-5-5---5-5-5---5-5-|-5---5-5-5---5-5-5---|-5-5-5---5-5-5---5-5-5-|
E|---------0-------------|---0-----------------|---------------0-------|

[Verse 4]
     E S S E E S S E E S S
e|------------------------|
B|o-----------------------|
G|----3-3-3---4-4-4---4-4-|
D|----0-0-0---0-0-0---0-0-|
A|o---5-5-5---5-5-5---5-5-|
E|----------0-------------|
 |
 |   Gtr VI
 |   W
e|------------------------|
B|o-----------------------|
G|------------------------|
D|------------------------|
A|o-----------------------|
E|------------------------|

   E E S S E E   S S E   E     S S E E S S E E S S E  3x
e|---------------------------|------------------------||
B|---------------------------|-----------------------o||
G|-4---5-5-5-----5-5-5-------|-7-7-7---2-2-2---3-3-3--||
D|-0---0-0-0-----0-0-0-------|-0-0-0---0-0-0---0-0-0--||
A|-5---5-5-5-----5-5-5-------|-5-5-5---5-5-5---5-5-5-o||
E|---0-----------------------|---------------0--------||
|
 | H         S S S S S S S S   W                      3x
e|-------------5-4-5-7-5-4-5-|-2----------------------||
B|---------------------------|-----------------------o||
G|---------------------------|------------------------||
D|---------------------------|------------------------||
A|---------------------------|-----------------------o||
E|---------------------------|------------------------||

     E S S E E S S E E S S   E E S S E E S S E E
e|------------------------|--------------------|
B|o-----------------------|--------------------|
G|----3-3-3---4-4-4---4-4-|-4---5-5-5---5-5-5--|
D|----0-0-0---0-0-0---0-0-|-0---0-0-0---0-0-0--|
A|o---5-5-5---5-5-5---5-5-|-5---5-5-5---5-5-5--|
E|----------0-------------|---0----------------|

[Chorus]
   Gtrs I, II
    E.      S  +E   E    +S   E.   E   E   E.   S +E  E +S  E.   S S E
e|-12------12-(12)-10---(10)-10----7---7-|-5----5-(5)-3-(3)-3------------|
B|--0-------0--(0)--0----(0)--0----0---0-|-0----0-(0)-0-(0)-0------------|
G|-12------11-(11)-10---(10)--9----7---6-|-5----4-(4)-3-(3)-2------------|
D|--0-------0--(0)--0----(0)--0----0---0-|-0----0-(0)-0-(0)-0----3-2-0---|
A|---------------------------------------|-------------------------------|
E|---------------------------------------|-------------------------------|
|
 | Gtr V
 |  S  S E      E   S S   E      E S S E   E  S S  E  E  S  S  E E   S S
e|---------------------------------------|-------------------------------|
B|---------------------------------------|-------------------------------|
G|--7--7-7----------2-2---2--------3-3-3-|----3-3--3-----4--4--4-----4-4-|
D|--0--0-0----------0-0---0--------0-0-0-|----0-0--0-----0--0--0-----0-0-|
A|---------------------------------------|-------------------------------|
E|---------------------------------------|-------------------------------|

    E.    S  +E     E  +S   E.     E E   E.     S +E  E   +S  E.   S S E
e|-12----12-(12)---10-(10)-10------7-7-|-5------5-(5)-3---(3)-3-----------||
B|--0-----0--(0)----0--(0)--0------0-0-|-0------0-(0)-0---(0)-0----------o||
G|-12----11-(11)---10-(10)--9------7-6-|-5------4-(4)-3---(3)-2-----------||
D|--0-----0--(0)----0--(0)--0------0-0-|-0------0-(0)-0---(0)-0----3-2-0--||
A|-------------------------------------|---------------------------------o||
E|-------------------------------------|----------------------------------||
|
 |  E  E      S  S  E   E      S S E E   S  S E    E  S S  E     E S S E
e|-------------------------------------|----------------------------------||
B|-------------------------------------|---------------------------------o||
G|--4---------5--5--5----------5-5-5---|-7--7-7-------2-2--2-------3-3-3--||
D|--0---------0--0--0----------0-0-0---|-0--0-0-------0-0--0-------0-0-0--||
A|-------------------------------------|---------------------------------o||
E|-------------------------------------|----------------------------------||

[Outro]
  G5
  Gtrs I, II
  Q  E. S S S E +E E   E  E +E E +Q  S S E
  |  |  | | | |  | |   |  |  | |  |  | | |
  /  /  / / / /  / /   /  /  / /  /  / / /
   Gtr IV
   W                    H.            E   E
e|--------------------|---------------------|
B|--------------------|---------------------|
G|--------------------|---------------------|
D|-5------------------|---------------------|
A|--------------------|---------------2---3-|
E|--------------------|-3-------------------|
|
 | Gtr III
 | W                    H.            E   E
e|--------------------|---------------------|
B|--------------------|---------------0---1-|
G|--------------------|---------------------|
D|--------------------|-5-------------------|
A|--------------------|---------------------|
E|-3------------------|---------------------|

  A5
  Q   E.   S S S  E +E   E     +E   E  H         E     S S
  |   |    | | |  |  |   |      |   |  |         |     | |
  /   /    / / /  /  /   /      /   /  /         /     / /
   Q.     S S S E.    S S S S    S S E +E  S S Q  S  S  E
e|----------------------------|-------------------------0---|
B|----------------------------|-------------------2--3------|
G|----------------------------|----0-2-(2)-3-0-2------------|
D|------------0-2-----0---0-2-|--4--------------------------|
A|-2------1-4-----------4-----|-----------------------------|
E|----------------------------|-----------------------------|
|
 | Q.     S S S E.    S S S S    S S E +E  S S Q  S  S  E
e|--------------0-----------0-|--2-3-5-(5)-6-3-5--9-10-12---|
B|-0--------2-3-------3-2-3---|-----------------------------|
G|--------3-------------------|-----------------------------|
D|----------------------------|-----------------------------|
A|----------------------------|-----------------------------|
E|----------------------------|-----------------------------|

  G5
   Q  E. S S S E +E    E
   |  |  | | | |  |    |
   /  /  / / / /  /    /
    H       Q      S S  S S
e|--------------------------|
B|--3-----------------------|
G|--------------------------|
D|--------------------------|
A|-----------------3-2--3-2-|
E|--------------------------|
|
 |  H       Q      S S  S S
e|-10-----------------------|
B|--------------------------|
G|--------------------------|
D|----------------10-9-10-9-|
A|--------------------------|
E|--------------------------|

                                 A5
  +E E +E   E +Q      S  S E     Q  E. S S S E +E   E
   | |  |   |  |      |  | |     |  |  | | | |  |   |
   / /  /   /  /      /  / /     /  /  / / / /  /   /
    Q    S S E  S S E +S  S S S   H       S S E  S S S S
e|------------------------------|------------------------|
B|------------------------------|------------------------|
G|------------------------------|-----------0------0-2-3-|
D|----------------0-2-(2)-0---0-|-2-------4---2--4-------|
A|--0----0-2-3--4-----------4---|------------------------|
E|------------------------------|------------------------|
|
 |  Q    S S E  S S E +S  S S S   H       S S E  S S S S
e|------------------0-(0)-------|-------------0------5-6-|
B|---------0--------------------|-5-------7-8----7-8-----|
G|-----------5--6-7-------7-6-7-|------------------------|
D|--7----7----------------------|------------------------|
A|------------------------------|------------------------|
E|------------------------------|------------------------|

  A5
  +E    E  H            E S S
   |    |  |            | | |
   /    /  /            / / /
    S E.   +E  S S E S S E E
e|-----------------------------|
B|-----------------------------|
G|--0-2----(2)-0-------0-2-2---|
D|---------------3-2-3---------|
A|-----------------------------|
E|-----------------------------|
|
 |  S E.   +E  S S E S S E E
e|--3-5----(5)-3-1-0-1-3-5-5---|
B|-----------------------------|
G|-----------------------------|
D|-----------------------------|
A|-----------------------------|
E|-----------------------------|

    G5
    Q   E.   S  S  S E +E E   +E E +E E +Q   S S E
    |   |    |  |  | |  | |    | |  | |  |   | | |
    /   /    /  /  / /  / /    / /  / /  /   / / /
     Q.     E    E    E  Q      Q    Q    E E E   E
e|--------------------------|----------------------|
B|o-------------------------|----------------------|
G|--------------------------|--------------0-2---3-|
D|----------------------2---|--0----2----3---------|
A|o--------0----2----3------|----------------------|
E|--3-----------------------|----------------------|
|
 |   Q.     E   +E    E  Q      Q    Q    E E E   E
e|----------------------0---|-------0----1-3-5---6-|
B|o-------------------------|--3-------------------|
G|-------------------5------|----------------------|
D|--5------7---(7)----------|----------------------|
A|o-------------------------|----------------------|
E|--------------------------|----------------------|

  A5
  Q   E. S S S E +E    E     +E E H    E S S
  |   |  | | | |  |    |      | | |    | | |
  /   /  / / / /  /    /      / / /    / / /
   H.              S  S S S    W               5x
e|--------------------------|------------------||
B|-2---------------2--3-2-0-|--2--------------o||
G|--------------------------|------------------||
D|--------------------------|------------------||
A|--------------------------|-----------------o||
E|--------------------------|------------------||
|
 | H.              S  S S S    W               5x
e|-9---------------9-10-9-7-|--9---------------||
B|--------------------------|-----------------o||
G|--------------------------|------------------||
D|--------------------------|------------------||
A|--------------------------|-----------------o||
E|--------------------------|------------------||

I hope you really enjoy this one.



************************************

| (n)  Ghost note

************************************
Suggest correction
comments
print report bad tab
7 comments total. Showing first comments.
+1 reply
andrewbiles 4,745 wrote on February 9 2003, 12:00 am

did someone buy Guitar Techniques and just work out the lead part from the backing track?

+1 reply
andrewbiles 4,745 wrote on February 9 2003, 12:00 am

good tab though, well done, although I still do think it's out of Guitar Techniques

+1 reply
cender1987 50 wrote on August 12 2003, 12:00 am

PERFECT!! its about time.version one was horrible and version 2 made no sense, this is 100% correct

guest
You may want to rate the tab now too:
select rating
Wanna post a correction for this tab? Suggest correction