Oops, an error
Loading. Please wait.

Moby Dick Bass

version 2
version 2

Whole song

Interactive

17,753 views 18 this week
2 commentsread comments
1 2 3 4 5
x 9
add to favorites
launch autoscroll
font size
0
reset
guitar tuner
backing track
0:00
0:00
×
Best way to learn
"Moby Dick"
Autoscroll
slow
fast
+/-
esc
set tempo
stop
Author
	Led Zeppelin
	"Moby Dick"
	Led Zeppelin II
	Atlantic Records 1969


Riff 1
======

G:----7--7-5-----------------
D:-----------5-----5----5----
A:-5-----------8-----8-----8-
E:---------------------------



Riff 2
======

G:-----12--12-10-----------------------
D:---------------12------10-----10-----
A:-10---------------13------13------13-
E:-------------------------------------



Riff 3
======

G:------------------------------------------7---5---------
D:----7--7-5---7--7----5--7---5-5-5-5-5-----------7-5-----
A:-----------7-------7------7-----------8-5-----------8---
E:-5------------------------------------------------------
Suggest correction
comments
print report bad tab
2 comments total.
0 reply
Yohomyth 383 Jun 25, 2003 08:00 PM

Riff 2
======

G:-----12--12-10-----------------------
D:---------------12------10-----10-----
A:-10---------------13------13------13-
E:-------------------------------------

0 reply
bassplayer496 347 Jul 25, 2008 11:26 PM

Not bad, not great

guest
You may want to rate the tab now too:
select rating
Wanna post a correction for this tab? Suggest correction