Oops, an error
Loading. Please wait.

Night Flight Tab

version 1
version 1

Whole song

Interactive

14,963 views 27 this week
2 commentsread comments
1 2 3 4 5
x 4
add to favorites
launch autoscroll
font size
0
reset
how to read this tab
guitar tuner
×
Best way to learn
"Night Flight"
Autoscroll
slow
fast
+/-
esc
set tempo
stop
Tuning
6 5 4 3 2 1
E A D G B E

E|5---------------|5---------------|5---------------|5---------------|
B|3---------------|2---------------|3---------------|2---------------|
G|2---------------|2---------------|2---------------|2---------------|
D|----------------|----------------|----------------|----------------|
A|----------------|----------------|----------------|----------------|
E|----------------|----------------|----------------|----------------|

E|0---------------|----------------|0---------------|----------------|
B|3---------------|2---------------|3---------------|2---------------|
G|2---------------|2---------------|2---------------|2---------------|
D|4---------------|2---------------|4---------------|2---------------|
A|0---------------|0---------------|0---------------|0---------------|
E|----------------|----------------|----------------|----------------|
  I received a message.....

E|5---------55----|5---------5---5-|5---------5---5-|5-------5-------|
B|----------------|----------------|--3-------------|--2---2---------|
G|----2-------2-2-|----2---2---2---|----2-------2---|----2-----------|
D|----------------|----------------|----------------|----------------|
A|----------------|----------------|----------------|----------------|
E|----------------|----------------|----------------|----------------|

E|----------------|----------------|----------------|----------------|
B|3-------322-322-|2-------322-322-|3-------322-322-|2---------------|
G|2-------2-2-2-2-|2-------2-2-2-2-|2-------2-2-2-2-|2---------------|
D|2-------2-2-2-2-|2-------2-2-2-2-|2-------2-2-2-2-|2---------------|
A|0-------0-0-0-0-|0-------0-0-0-0-|0-------0-0-0-0-|0---------------|
E|----------------|----------------|----------------|----------------|

E|----------------|----------------|----------------|----------------|
B|----------------|----------------|----------------|----------------|
G|--2---2---2-----|----------------|----------------|----------------|
D|--2---2---2---24|----------------|----------------|----------------|
A|------2-----24--|--2---2---2-2-4-|5-5-7-7-5-5-7-5-|12121414121214--|
E|0-----0---------|0-0---0---0-0-2-|3-3-3-3-3-3-3-3-|101010101010100-|

E|----------------|----------------|----------------|----------------|
B|----------------|----------------|----------------|----------------|
G|----------------|----------------|----------------|----------------|
D|----------------|----------------|----------------|----------------|
A|3-3-5-5-3-3-3-3-|101012121010--4-|5-5-7-7-5-5-7-7-|5-5-7-7-5-------|
E|1-1-1-1-1-1-1-1-|8-8-8-8-8-8-0-2-|3-3-3-3-3-3-3-3-|3-3-3-3-3-------|

E|5---------------|5---------------|5---------------|5---------------|
B|3---------------|2---------------|3---------------|2---------------|
G|2---------------|2---------------|2---------------|2---------------|
D|----------------|----------------|----------------|----------------|
A|----------------|----------------|----------------|----------------|
E|----------------|----------------|----------------|----------------|

E|0---------------|----------------|0---------------|----------------|
B|3---------------|2---------------|3---------------|2---------------|
G|2---------------|2---------------|2---------------|2---------------|
D|4---------------|2---------------|4---------------|2---------------|
A|0---------------|0---------------|0---------------|0---------------|
E|----------------|----------------|----------------|----------------|

E|5---------5-----|5---------5-----|5---------5---5-|5-------5-------|
B|------------2---|--2-------------|----------------|----------------|
G|----2---------2-|----2---------2-|----2-----2---2-|----2---2-------|
D|----------------|----------------|----------------|----------------|
A|----------------|----------------|----------------|----------------|
E|----------------|----------------|----------------|----------------|

E|----------------|----------------|----------------|----------------|
B|2------232-232-2|2------232-232-2|2------232-232-2|3---3--33-------|
G|2-2---2---2---2-|2-2---2---2---2-|2-2---2---2---2-|2---2--22-------|
D|2---------------|2---------------|2---------------|2---2--22-------|
A|0---------------|0---------------|0---------------|0---0--00-------|
E|----------------|----------------|----------------|----------------|

E|5---------------|5---------------|5---------------|5---------------|
B|----------------|----------------|----------------|----------------|
G|----2-----2---2-|----2-----2---2-|----2-----2---2-|----2-----2---2-|
D|--------2---2---|--------2---2---|--------2---2---|--------2---2---|
A|----------------|----------------|----------------|----------------|
E|----------------|----------------|----------------|----------------|

E|0---------------|----------------|0---------------|----------------|
B|3---------------|2------232-232-2|3---------------|2------232-232-2|
G|2---------------|2-2---2---2---2-|2---------------|2-2---2---2---2-|
D|4---------------|2---------------|4---------------|2---------------|
A|0---------------|0---------------|0---------------|0---------------|
E|----------------|----------------|----------------|----------------|
  I just jumped a train that never stops.....

E|5---------------|5---------------|5---------------|5-------5-------|
B|----------------|----------------|----------------|--2---2-2-------|
G|----2-----2---2-|----2-----2---2-|----2-----2---2-|----2-----------|
D|--------2---2---|--------2---2---|--------2---2---|----------------|
A|----------------|----------------|----------------|----------------|
E|----------------|----------------|----------------|----------------|

E|0---------------|----------------|0---------------|----------------|
B|3---------------|2------232-232-2|3---------------|2---------------|
G|2---------------|2-2---2---2---2-|2---------------|2---------------|
D|4---------------|2---------------|4---------------|2---------------|
A|0---------------|0---------------|0---------------|0---------------|
E|----------------|----------------|----------------|----------------|

E|----------------|----------------|----------------|----------------|
B|----------------|----------------|----------------|----------------|
G|--2---2---2-----|----------------|----------------|----------------|
D|--2---2---2---24|----------------|----------------|----------------|
A|------2-----24--|2-2---2---2-2-4-|5-5-7-7-5-5-7-5-|12121414121214--|
E|0-----0---------|0-0---0---0-0-2-|3-3-3-3-3-3-3-3-|101010101010100-|

E|----------------|----------------|----------------|----------------|
B|----------------|----------------|----------------|----------------|
G|----------------|----------------|----------------|----------------|
D|----------------|----------------|----------------|----------------|
A|3-3-5-5-3-3-3-3-|101012121010--4-|5-5-7-7-5-5-7-7-|5-5-7-7-5-----4-|
E|1-1-1-1-1-1-1-1-|3-3-3-3-3-3-0-2-|3-3-3-3-3-3-3-3-|3-3-3-3-3-----2-|

                                                     2/4 time
E|----------------|----------------|----------------|--------|
B|----------------|----------------|----------------|--------|
G|----------------|----------------|----------------|--------|
D|----------------|----------------|----------------|--------|
A|5-5-7-7-5-5-7-7-|5-5-7-7-5-------|----------------|------4-|
E|3-3-3-3-3-3-3-3-|3-3-3-3-3-------|----------------|------2-|

  4/4 time
E|----------------|----------------|----------------|
B|----------------|----------------|----------------|
G|----------------|----------------|----------------|
D|----------------|----------------|----------------|
A|5-5-7-7-5-5-7-7-|5-5-7-7-5-5-7-7-|5-5-7-7-5-5-7-7-|
E|3-3-3-3-3-3-3-3-|3-3-3-3-3-3-3-3-|3-3-3-3-3-3-3-3-|

E|----------------|----------------|----------------|
B|----------------|----------------|----------------|
G|----------------|----------------|----------------|
D|----------------|----------------|----------------|
A|5-5-7-7-5-5-7-4-|5---------------|--------------9-|
E|3-3-3-3-3-3-3-2-|3---------------|--------------7-|

E|----------------|----------------|----------------|----------------|
B|----------------|----------------|----------------|----------------|
G|----------------|----------------|----------------|----------------|
D|----------------|----------------|----------------|----------------|
A|1010121210101212|101012121010--4-|5-5-7-7-5-5-7-7-|5-5-7-7-5-5-5-5-|
E|8-8-8-8-8-8-8-8-|8-8-8-8-8-8-0-2-|3-3-3-3-3-3-3-3-|3-3-3-3-3-3-3-3-|
  Please mister brakeman won't ya ring your bell.....

E|----------------|----------------|----------------|----------------|
B|----------------|----------------|----------------|----------------|
G|----------------|----------------|----------------|----------------|
D|----------------|----------------|----------------|----------------|
A|1010121210101212|101012121010--4-|5-5-7-7-5-5-7-7-|5-5-7-7-5-5-7-5-|
E|8-8-8-8-8-8-8-8-|8-8-8-8-8-8-0-2-|3-3-3-3-3-3-3-3-|3-3-3-3-3-3-3-3-|

E|5---------------|5---------------|5---------------|5---------------|
B|3---------------|2---------------|3---------------|2---------------|
G|2---------------|2---------------|2---------------|2---------------|
D|----------------|----------------|----------------|----------------|
A|----------------|----------------|----------------|----------------|
E|----------------|----------------|----------------|----------------|

E|0---------------|----------------|0---------------|----------------|
B|3---------------|2---------------|3---------------|2---------------|
G|2---------------|2---------------|2---------------|2---------------|
D|4---------------|2---------------|4---------------|2---------------|
A|0---------------|0---------------|0---------------|0---------------|
E|----------------|----------------|----------------|----------------|

E|5---------5-----|5---------5-----|5---------------|5---------55--55|
B|------------3-2-|--2-------------|--2-------------|2---------22--22|
G|----2-----------|----2---------2-|----2-----2---2-|2---------22--22|
D|----------------|----------------|--------2---2---|--------2---2---|
A|----------------|----------------|----------------|----------------|
E|----------------|----------------|----------------|----------------|

E|0---------------|----------------|0---------------|----------------|
B|3---------------|2------232-232-2|3---------------|2------232-232-2|
G|2---------------|2-2---2---2---2-|2---------------|2-2---2---2---2-|
D|4---------------|2---------------|4---------------|2---------------|
A|0---------------|0---------------|0---------------|0---------------|
E|----------------|----------------|----------------|----------------|

E|5---------5-----|--5-------5-----|5---------------|5-------5-------|
B|3-----------3---|2-----------2---|--2-------------|--2-----2-------|
G|----2---------2-|----2---------2-|----2-----2---2-|----2---2-------|
D|----------------|----------------|--------2---2---|----------------|
A|----------------|----------------|----------------|----------------|
E|----------------|----------------|----------------|----------------|

E|0---------------|----------------|0---------------|----------------|
B|2---------------|2------232-232-2|2---------------|2---2---2-------|
G|3---------------|2-2---2---2---2-|3---------------|2---2---2-------|
D|4---------------|2---------------|4---------------|2---2---2-------|
A|0---------------|0---------------|0---------------|0---0---0-------|
E|----------------|----------------|----------------|----------------|

E|----------------|----------------|----------------|----------------|
B|----------------|----------------|----------------|----------------|
G|--2---2---2-----|----------------|----------------|----------------|
D|--2---2---2---24|----------------|----------------|----------------|
A|------2-----24--|2-2---2---2-2-4-|5-5-7-7-5-5-7-5-|12121414121214--|
E|0-----0---------|0-0---0---0-0-2-|3-3-3-3-3-3-3-3-|101010101010100-|
  Come on, come on now, meet me in the morning.....

E|----------------|----------------|----------------|----------------|
B|----------------|----------------|----------------|----------------|
G|----------------|----------------|----------------|----------------|
D|----------------|----------------|----------------|----------------|
A|3-3-5-5-3-3-3-3-|101012121010--4-|5-5-7-7-5-5-7-7-|5-5-7-7-5-----4-|
E|1-1-1-1-1-1-1-1-|8-8-8-8-8-8-0-2-|3-3-3-3-3-3-3-3-|3-3-3-3-3-----2-|

E|----------------|----------------|----------------|
B|----------------|----------------|----------------|
G|----------------|----------------|----------------|
D|----------------|----------------|----------------|
A|5-5-7-7-5-5-7-7-|5-5-7-7-5-----4-|5-5-7-7-5-5-7-7-|
E|3-3-3-3-3-3-3-3-|3-3-3-3-3-----2-|3-3-3-3-3-3-3-3-|

E|----------------|----------------|----------------|
B|----------------|----------------|----------------|
G|----------------|----------------|----------------|
D|----------------|----------------|----------------|
A|5-5-7-7-5-----4-|5-5-7-7-5-5-7-7-|5-5-7-7-5-----4-|
E|3-3-3-3-3-----2-|3-3-3-3-3-3-3-3-|3-3-3-3-3-----2-|

E|----------------|----------------|----------------|
B|----------------|----------------|----------------|
G|----------------|----------------|----------------|
D|----------------|----------------|----------------|
A|5-5-7-7-5-5-7-7-|5-5-7-7-5-----4-|5-5-7-7-5-5-7-7-|
E|3-3-3-3-3-3-3-3-|3-3-3-3-3-----2-|3-3-3-3-3-3-3-3-|

E|----------------|----------------|----------------|
B|----------------|----------------|----------------|
G|----------------|----------------|----------------|
D|----------------|----------------|----------------|
A|5-5-7-7-5-----4-|5-5-7-7-5-5-7-7-|5-5-7-7-5-------|
E|3-3-3-3-3-----2-|3-3-3-3-3-3-3-3-|3-3-3-3-3-------|
Suggest correction
comments
print report bad tab
2 comments total.
0 reply
stef123 10 Dec 30, 2007 04:19 AM

Mostly right!

Dang my fingers can't stretch enough for
1
5

guest
You may want to rate the tab now too:
select rating
Wanna post a correction for this tab? Suggest correction