Oops, an error
Loading. Please wait.

Out On The Tiles Bass

version 2
version 2

Whole song

Interactive

8,435 views 3 this week
3 commentsread comments
1 2 3 4 5
x 7
add to favorites
×
Save as Personal and add changes to this tab that will be seen only by you. Learn more ›
×
You can save this tab as Personal to edit and correct it or add notes. All changes will be seen only by you. Learn more »
save as personal
new!
launch autoscroll
font size
0
reset
guitar tuner
backing track
0:00
0:00
Autoscroll
slow
fast
+/-
esc
set tempo
stop
Author
Artist ; Led Zeppelin
Album  ; Led Zeppelin III
Song   ; Out On The Tiles

Tabbed By Matt Langdale (m_langdale@talk21.com)

It's not 100% correct but it's alot closer than the existing tab on the site.


   Intro
G ---------------------------------------------------------------------|
D ---------------------------------------------------------------------|
A ---------------------------------------------------------------------|
E --3--3--3--3--3--3--3--3--2--2--2--2--2--2--2--2--5P-3--5P-3--5P-3---|
                                                                              



  Verse                                               (x2)
G ----------------------------------------------------|
D -------------4--1-2-1-2-1-2-1-2---------------------|
A -----1---4-----------------------4-2-0-2-0-2-3-2-0--|
E --2-------------------------------------------------|
                                                                         

G ------------------------------------------------------------------------|
D ----------4-1-2-1-2-1-2-1-2---------------------------------------------|
A --1--4---------------------4-2-4-2-4-2-3-2-0----------------------------|
E 2---------------------------------------------4-5-4-5-4-5-4-5--2-0-2-0-2|

  Chorus


G ---------------------------------------------------------|
D -------------1--2-2--2-2--2-2--2-2-x---------------------|
A --------------------------------------0-----0--4--2------|
E --5-5--5-5------------------------------------------4----| 

                                                    
G ------------------------------------------------------------------------|
D -----------1--2-2--2-2--2-2--2-2-x--------------------------------------|
A ------------------------------------0-0--4--2---------------------------|
E -5-5--5-5-------------------------------------4--5p-3--5p-3--5p-3--5p-3-| 

   

  Outro
G ----------------------------------------------------------------------|
D ---------5------------5------------5-----------7---5------------------|
A -----7------------7------------7--------------------------------------|
E -0-----------0-0-----------0-----------0-0----------------------------|
Suggest correction
comments
print report bad tab
3 comments total.
0 reply
Will-eh 221 Mar 01, 2006 03:17 PM

Good tab,

0 reply
ObsessiveArcher 10 Dec 15, 2015 07:23 PM

Nice Tab!
But, I think the Chorus goes like this:
G ----------------------------------------------------------|
D ---------------------------------------1-2-2--------------|
A ---------------------------------------------0-0--4--2----|
E --0-0-0-0-0---4-5-5--5-5---4-5-5--5-5------------------4--|

G ------------------------------------------------------------------------|
D ---------------------------------------1-2-2--2-2-----------------------|
A ------------------------------------------------------------------------|
E --0----------4-5-5--5-5---4-5-5--5-5-------------5p-3--5p-3--5p-3--5p-3-|

0 reply
ObsessiveArcher 10 Mar 08, 2016 08:45 PM

I think the Outro goes something like:
G ------------------------------------------|
D ------------------------------------------|
A -----------------------------------12-10--|6x
E --0-0-12---0-0-12-12---0-0-12---0-0-------|

G -----------------------------------------|
D -----------------------------------------|
A ----------------------------------12-10--|4x
E --9-11-12-0-3--0-0-3-3--0-0-3---0-0------|

G -----------------------------------------|
D -----------------------------------------|
A ----------------------------------12-10--|1x
E 9-11-12-0-0-3--0-0-3-3--0-0-3---0-0------|

G -----------------------------------------------|
D -----------------------------------------------|
A -----------------------------------------------|3x
E --0-0-12---0-0-12-12---0-0-12--0-0-5-5-3-3-2-2-|

guest
You may want to rate the tab now too:
select rating
Wanna post a correction for this tab? Suggest correction