Oops, an error
Loading. Please wait.

Out On The Tiles Tab

version 5
version 5

Interactive

850 views 1 this week
no commentswrite comment
1 2 3 4 5
please rate
add to favorites
launch autoscroll
font size
0
reset
how to read this tab
guitar tuner
Autoscroll
slow
fast
+/-
esc
set tempo
stop
Help us to improve Ultimate-Guitar.com Take our survey!
×
Author
-------------------------------------------------------------------------------
                             Out On the Tiles - Led Zeppelin
-------------------------------------------------------------------------------
Tabbed by: Coffeeguy9
Email:coffeeguy9@gmail.com

Tuning:EADGBe

   Intro, play 5th's lightly          Bend Low Ab's to A
e|------------------|-----------------|-------------|
B|------------------|-----------------|-------------|
G|------------------|-----------------|-------------|
D|------------------|-----------------|-------------|
A|--5-5-5-5-5-5-5-5-|-4-4-4-4-4-4-4-4-|-0---0---0---|    End Intro
E|--3-3-3-3-3-3-3-3-|-2-2-2-2-2-2-2-2-|--b4--b4--b4-|

e|-------------|----------------------------------|
B|-------------|----------------------------------|
G|-------------|----------------------------------|
D|--------4----|-1-2-1-2-1-2-0--------------------|      Repeat last 2 bars
A|----1-4------|---------------4-0-2-0-2-0-2-3-0--|
E|--2----------|----------------------------------|

e|-------------|------------------------------------------------|-------------------|
B|-------------|------------------------------------------------|-------------------|
G|-------------|------------------------------------------------|-------------------|
D|--------4----|-1-2-1-2-1-2-0----------------------------------|-4----2----4---2-4-|     
A|----1-4------|---------------4-2-4-2-4-2-4-2-0----------------|-4----2----4---2-4-|
E|--2----------|---------------------------------4-5-4-5-3-4-5--|-2----0----2---0-2-|

Thats Repeat until bridge

   Bridge:
          EM               AM           AM              EM           EM
e|----------0----|----------0------------0----|----------0------------0----|
B|----------0----|----------2------------2----|----------0------------0----|
G|----------1----|----------2------------2----|----------1------------1----|
D|----------2----|----------2------------2----|----------2------------2----|
A|----------2----|--0-0-0-0-0----0-0-0-0-0----|----------2------------2----|
E|--0-0-0-0-0----|----------------------------|--0-0-0-0-0----0-0-0-0-0----|

e|-------------|------------------|-----------------|-------------|
B|-------------|------------------|-----------------|-------------|
G|-------------|------------------|-----------------|-------------|
D|-------------|------------------|-----------------|-------------|
A|-0---0---0---|--5-5-5-5-5-5-5-5-|-4-4-4-4-4-4-4-4-|-0---0---0---|    
E|--b4--b4--b4-|--3-3-3-3-3-3-3-3-|-2-2-2-2-2-2-2-2-|--b4--b4--b4-|

Repeat Chorus and Bridge as neccesary

Outro:

e|--------------------------|--------------------------|
B|--------------------------|--------------------------|
G|--------------------------|----------------2---------|
D|--2--2-2-5---2--2--2-5----|--2--2-2-5---2--2--2-5----| Repeat and Fade
A|--2--2-2-5---2--2--2-5----|--2--2-2-5---2--0--2-5----|
E|--0--0-0-3---0--0--0-3----|--0--0-0-3---0-----2-3----|


| /  slide up
| \  slide down
| h  hammer-on
| p  pull-off
| ~  vibrato
| +  harmonic
| x  Mute note
===============================================================================
Suggest correction
What's this?
You can suggest a correction to this tab. Community and Mods will review your correction and vote to approve or reject it.
comments
We did not receive enough feedback on this tab! Please rate:
print report bad tab
1 2 3 4 5
guest
You may want to rate the tab now too:
select rating
Please do not post tabs as comments. Select "correction" instead!