Oops, an error
Loading. Please wait.

Ramble On Tab

version 3
version 3
541,483 views 1,119 this week
14 commentsread comments
1 2 3 4 5
accurate
x 60
add to favorites
launch autoscroll
font size
0
reset
how to read this tab
guitar tuner
Tab Pro tools
  • play this tab
  • loop segment
  • change instrument
  • show fretboard
  • metronome
×
Best way to learn
"Ramble On"
Autoscroll
slow
fast
+/-
esc
set tempo
stop
Contributor
                                    RAMBLE ON
                           As recorded by Led Zeppelin
                      (From the 1969 Album LED ZEPPELIN II)

Words and Music by Jimmy Page & Robert Plant
Transcribed by www.mikesguitarsite.co.uk

          A13                A13sus4                Em
      x 0 2 0 2 0          x 0 4 0 3 0          x 0 5 0 5 0

Gtr I (E A D G B E) - 'Jimmy Page - Rhythm steel string acoustic'
Gtr II (E A D G B E) - 'Jimmy Page - Lead w/light dist'
Gtr III (E A D G B E) - 'Jimmy Page - Lead w/light dist'
Gtr IV (E A D G B E) - 'Jimmy Page - Lead w/light dist'


[Intro]

     Q=98
    4/4
     Gtr I
                                                                           4x
e||---0--0--0--0--0--0--0--0--0-0-0-0-----|-----0---0-0-0-0-0-0-0-0-0------||
B||o--0--0--0--0--0--0--0--0--0-0-0-0-----|-3s5-5---5-5-5-5-5-5-5-5-5-0---o||
G||--13-13-13-13-13-11-11-11-11-9-9-9-----|-4s6-6h7-7-7-7-7-7-7-6-6-6-0-6--||
D||--14-14-14-14-14-12-12-12-12-7-7-7-0-0-|-5s7-7---7-7-7-7-7-7-7-7-7-0-7--||
A||o-14-14-14-14-14-12-12-12-12-9-9-9-0-0-|---0-0---0-0-0-0-0-0-0-0-0---7-o||
E||---0--0--0--0--0--0--0--0--0-0-0-0-0-0-|--------------------------------||


[Verse]
                                                                           8x
e||---0--0--0--0--0--0--0--0--0-0-0-0-----|-----0---0-0-0-0-0-0-0-0-0------||
B||o--0--0--0--0--0--0--0--0--0-0-0-0-----|-3s5-5---5-5-5-5-5-5-5-5-5-0---o||
G||--13-13-13-13-13-11-11-11-11-9-9-9-----|-4s6-6h7-7-7-7-7-7-7-6-6-6-0-6--||
D||--14-14-14-14-14-12-12-12-12-7-7-7-0-0-|-5s7-7---7-7-7-7-7-7-7-7-7-0-7--||
A||o-14-14-14-14-14-12-12-12-12-9-9-9-0-0-|---0-0---0-0-0-0-0-0-0-0-0---7-o||
E||---0--0--0--0--0--0--0--0--0-0-0-0-0-0-|--------------------------------||


[Pre-Chorus]

     $
     Gtr II
e||---0------------0-----------0---(0)----------------|
B||o-----------------0-(0)-------------0--------0-----|
G||--11pb12r(11)-----------9---------------9h11-------|
D||---------------------------------------------------|
A||o--------------------------------------------------|
E||---------------------------------------------------|
 |
 |   Gtr I
e||---------------------------------------------------|
B||o-------------------------------------7------7-7---|
G||---1------------------------6---------4------4-4---|
D||---2----------------------------------4------4-4-0-|
A||o--2------------------------4---------6------6-6---|
E||---0----------0-0----0----0---0--0-----------------|


e|----------------------------------------||
B|------------0-(0)---------0------------o||
G|-6pb7r(6)---------6p4-(4)------2p=1-----||
D|------------------------------------2---||
A|---------------------------------------o||
E|----------------------------------------||
|
e|-0--------------------------0-(0)-------||
B|-5--------------------------0-(0)------o||
G|-6----------------6---------1-(1)-------||
D|-7--------------------------2-(2)-------||
A|-0----------------4---------2-(2)------o||
E|----------0-0--0-------0--0-0-(0)---0---||


[Chorus]
                                                             To Coda
                                                                      4x
e||---------------------------------|-----------------------------3---||
B||o-9-9-9-9------------------------|-3s5-----------3-(3)------------o||
G||--9-9-9-9-7-9-(9)\---------------|-------0-------------0-----2-----||
D||--9-9-9-9-7----------------------|-5s7-----7-5---------0---0-------||
A||o-7-7-7-7---9-(9)\---------------|--------------------------------o||
E||--0-0-0-0------------------------|---------------------------------||
|
 |                                                                    4x
e||---------------0---0-0-0-0-0-----|---------------------------2-2---||
B||o-9-9-9-9------x---x-x-x-x-x-----|-3s5-5-5-5s3-3-3--3--------3-3--o||
G||--9-9-9-9-7-9--x---x-x-x-x-x-0-0-|-0---0-0-0---0-0--0--0-0-0-2-2---||
D||--9-9-9-9-7----x---x-x-x-x-x-0-0-|-5s7-7-7-7s5-5-5--5--0-0-0-0-0---||
A||o-7-7-7-7---9--x---x-x-x-x-x-0-0-|--------------------------------o||
E||--0-0-0-0------x---x-x-x-x-x-----|---------------------------------||


[Verse]

    >
e|--------------------------------------|-------------------------------|
B|--------------------------------------|-------------------------------|
G|--------------------------------------|-------------------------------|
D|--------------------------------------|-------------------------------|
A|--------------------------------------|-------------------------------|
E|--0-----------------------------------|-------------------------------|
|
e|--0--0--0--0--0--0--0--0--0-0-0-0-----|-----0---0-0-0-0-0-0-0-0-0-----|
B|--0--0--0--0--0--0--0--0--0-0-0-0-----|-3s5-5---5-5-5-5-5-5-5-5-5-0---|
G|-13-13-13-13-13-11-11-11-11-9-9-9-----|-4s6-6h7-7-7-7-7-7-7-6-6-6-0-6-|
D|-14-14-14-14-14-12-12-12-12-7-7-7-0-0-|-5s7-7---7-7-7-7-7-7-7-7-7-0-7-|
A|-14-14-14-14-14-12-12-12-12-9-9-9-0-0-|---0-0---0-0-0-0-0-0-0-0-0---7-|
E|--0--0--0--0--0--0--0--0--0-0-0-0-0-0-|-------------------------------|

     Gtr I
                                                                           3x
e||---0--0--0--0--0--0--0--0--0-0-0-0-----|-----0---0-0-0-0-0-0-0-0-0------||
B||o--0--0--0--0--0--0--0--0--0-0-0-0-----|-3s5-5---5-5-5-5-5-5-5-5-5-0---o||
G||--13-13-13-13-13-11-11-11-11-9-9-9-----|-4s6-6h7-7-7-7-7-7-7-6-6-6-0-6--||
D||--14-14-14-14-14-12-12-12-12-7-7-7-0-0-|-5s7-7---7-7-7-7-7-7-7-7-7-0-7--||
A||o-14-14-14-14-14-12-12-12-12-9-9-9-0-0-|---0-0---0-0-0-0-0-0-0-0-0---7-o||
E||---0--0--0--0--0--0--0--0--0-0-0-0-0-0-|--------------------------------||


[Interlude]

   Gtrs III, IV
    <
    ~~~~~~~~~~~~~~~~~~~~~~~~~~~~~~~~~~~~~
e|--------------------------------------|
B|-15-----------------------------------|
G|-16-----------------------------------|
D|--------------------------------------|
A|--------------------------------------|
E|--------------------------------------|
|
 | Gtr I
e|--0--0--0--0--0--0--0--0--0-0-0-0-----|
B|--0--0--0--0--0--0--0--0--0-0-0-0-----|
G|-13-13-13-13-13-11-11-11-11-9-9-9-----|
D|-14-14-14-14-14-12-12-12-12-7-7-7-0-0-|
A|-14-14-14-14-14-12-12-12-12-9-9-9-0-0-|
E|--0--0--0--0--0--0--0--0--0-0-0-0-0-0-|


  ~~~~~~~~~~
e||---------------------------------------------------|
B||o---(15)-(15)p14h15---(15)p14h15---(15)p14h15---17-|
G||----(16)-(16)p14h16---(16)p14h16---(16)p14h16---18-|
D||---------------------------------------------------|
A||o--------------------------------------------------|
E||---------------------------------------------------|
|
e||-----------0------0-0---0---0--0-0---0---0--0------|
B||o-3s==5----5------5-5---5---5--5-5---5---5--5-0----|
G||--4s==6----6h==7--7-7---7---7--7-7---6---6--6-0--6-|
D||--5s==7----7------7-7---7---7--7-7---7---7--7-0--7-|
A||o-----0----0------0-0---0---0--0-0---0---0--0----7-|
E||---------------------------------------------------|

   1.,2.
          ~~~~~~~~~~
e|-----------------------------------------||
B|-15p14h15----(15)-----------------------o||
G|-16p14h16----(16)------------------------||
D|-----------------------------------------||
A|----------------------------------------o||
E|-----------------------------------------||
|
e|--0--0--0--0---0---0--0--0--0-0-0-0------||
B|--0--0--0--0---0---0--0--0--0-0-0-0-----o||
G|-13-13-13-13--13--11-11-11-11-9-9-9------||
D|-14-14-14-14--14--12-12-12-12-7-7-7-0-0--||
A|-14-14-14-14--14--12-12-12-12-9-9-9-0-0-o||
E|--0--0--0--0---0---0--0--0--0-0-0-0-0-0--||

   3.
           ~~~~~~~~~~
e|-----------------------------------------|----------------------------------||
B|--15p14h15----(15)-----------------------|----------------------------------||
G|--16p14h16----(16)-----------------------|----------------------------------||
D|-----------------------------------------|----------------------------------||
A|-----------------------------------------|----------------------------------||
E|-----------------------------------------|----------------------------------||
|
e|---0--0--0--0---0---0--0--0--0-0-0-0-----|-----0---0-0-0-0-0-0-0-0-0--------||
B|---0--0--0--0---0---0--0--0--0-0-0-0-----|-3s5-5---5-5-5-5-5-5-5-5-5-0------||
G|--13-13-13-13--13--11-11-11-11-9-9-9-----|-4s6-6h7-7-7-7-7-7-7-6-6-6-0-6----||
D|--14-14-14-14--14--12-12-12-12-7-7-7-0-0-|-5s7-7---7-7-7-7-7-7-7-7-7-0-7----||
A|--14-14-14-14--14--12-12-12-12-9-9-9-0-0-|---0-0---0-0-0-0-0-0-0-0-0---7----||
E|---0--0--0--0---0---0--0--0--0-0-0-0-0-0-|----------------------------------||


[Chorus]

     Gtr II
                                                                      4x
e||---------------------------------|-----------------------------3---||
B||o-9-9-9-9------------------------|-3s5-----------3-(3)------------o||
G||--9-9-9-9-7-9-(9)\---------------|-------0-------------0-----2-----||
D||--9-9-9-9-7----------------------|-5s7-----7-5---------0---0-------||
A||o-7-7-7-7---9-(9)\---------------|--------------------------------o||
E||--0-0-0-0------------------------|---------------------------------||
|
 |   Gtr I
 |                                                                    4x
e||---------------0---0-0-0-0-0-----|---------------------------2-2---||
B||o-9-9-9-9------x---x-x-x-x-x-----|-3s5-5-5-5s3-3-3--3--------3-3--o||
G||--9-9-9-9-7-9--x---x-x-x-x-x-0-0-|-0---0-0-0---0-0--0--0-0-0-2-2---||
D||--9-9-9-9-7----x---x-x-x-x-x-0-0-|-5s7-7-7-7s5-5-5--5--0-0-0-0-0---||
A||o-7-7-7-7---9--x---x-x-x-x-x-0-0-|--------------------------------o||
E||--0-0-0-0------x---x-x-x-x-x-----|---------------------------------||


[Interlude]

  A13            A13sus4
  Gtr I
   |           |  |     |     |  |     |
   /           /  /     /     /  /     /

   Gtr III
e|----------------------------------------|
B|-17-15-14-------17-15-14-------17-15-14-|
G|----------16-14----------16-14----------|
D|----------------------------------------|
A|----------------------------------------|
E|----------------------------------------|
|
 | Gtr IV
e|--9--7-----------9--7-----------9--7----|
B|-------10--7----------10--7----------10-|
G|--------------9--------------9----------|
D|----------------------------------------|
A|----------------------------------------|
E|----------------------------------------|
|
 | Gtr II
e|----------------------------------------|
B|----------------------------------------|
G|----------------------------------------|
D|----------------------------------------|
A|--0-------------------------------------|
E|----------------------------------------|


  Em             A13sus4
   |        |  |  |   |
   /        /  /  /   /

                   ~~~~~~~    ~~~~~~~
e|-----------------------------------------|
B|-17-15----------14-(14)----14-(14)----14-|
G|-------14-16-14---------16---------16----|
D|-----------------------------------------|
A|-----------------------------------------|
E|-----------------------------------------|
|
 |                 ~~~~~~~    ~~~~~~~
e|--9--7-----------------------------------|
B|-------10--7----10-(10)--7-10-(10)--7-10-|
G|--------------9--------------------------|
D|-----------------------------------------|
A|-----------------------------------------|
E|-----------------------------------------|
|
e|-----------------------------------------|
B|-----------------------------------------|
G|-----------------------------------------|
D|-----------------------------------------|
A|-----------------------------------------|
E|-----------------------------------------|


  A13            A13sus4
   |           |  |     |     |  |     |
   /           /  /     /     /  /     /

e|----------------------------------------|
B|-17-15-14-------17-15-14-------17-15-14-|
G|----------16-14----------16-14----------|
D|----------------------------------------|
A|----------------------------------------|
E|----------------------------------------|
|
e|--9--7-----------9--7-----------9--7----|
B|-------10--7----------10--7----------10-|
G|--------------9--------------9----------|
D|----------------------------------------|
A|----------------------------------------|
E|----------------------------------------|
|
e|----------------------------------------|
B|----------------------------------------|
G|--7s=9----------------------------------|
D|-------11-------------------------------|
A|----------------------------------------|
E|----------------------------------------|


  Em             A13sus4
   |        |  |  |   |
   /        /  /  /   /

                   ~~~~~~~    ~~~~~~~
e|-----------------------------------------||
B|-17-15----------14-(14)----14-(14)----14-||
G|-------14-16-14---------16---------16----||
D|-----------------------------------------||
A|-----------------------------------------||
E|-----------------------------------------||
|
 |                 ~~~~~~~    ~~~~~~~
e|--9--7-----------------------------------||
B|-------10--7----10-(10)--7-10-(10)--7-10-||
G|--------------9--------------------------||
D|-----------------------------------------||
A|-----------------------------------------||
E|-----------------------------------------||
|
e|-----------------------------------------||
B|-----------------------------------------||
G|--8s=9-----------------------------------||
D|-------11------------9---------11--------||
A|-----------------------------------------||
E|-----------------------------------------||


[Verse]

   Gtrs III, IV
    ~~~
e|-----------------------------------------|------------------------------------|
B|-12--------------------------------------|------------------------------------|
G|-13--------------------------------------|------------------------------------|
D|-----------------------------------------|------------------------------------|
A|-----------------------------------------|------------------------------------|
E|-----------------------------------------|------------------------------------|
|
 | Gtr II
e|-----------------------------------------|------------------------------------|
B|-----------------------------------------|------------------------------------|
G|-----------------------------------------|----------9----------7-7------------|
D|--------9----(9)-------------------------|---9h11-----11---7h9-----9---6---7--|
A|--9h11------------9----(9)----11---------|------------------------------------|
E|-----------------------------------------|------------------------------------|
|
 | Gtr I
e|--0--0--0--0--0---0--0--0---0--0-0-0-----|--------0----0-0-0-0-0-0-0-0-0------|
B|--0--0--0--0--0---0--0--0---0--0-0-0-----|-3s5----5----5-5-5-5-5-5-5-5-5-0----|
G|-13-13-13-13-13--11-11-11--11--9-9-9-----|-4s6----6h7--7-7-7-7-7-7-6-6-6-0-6--|
D|-14-14-14-14-14--12-12-12--12--7-7-7-0-0-|-5s7----7----7-7-7-7-7-7-7-7-7-0-7--|
A|-14-14-14-14-14--12-12-12--12--9-9-9-0-0-|---0----0----0-0-0-0-0-0-0-0-0---7--|
E|--0--0--0--0--0---0--0--0---0--0-0-0-0-0-|------------------------------------|


     Gtr II
e||------------------------------------------|
B||o-----------------------------------------|
G||------------------------------------------|
D||---------9----(9)-------------------------|
A||o--9h11------------9----(9)----11---------|
E||------------------------------------------|
|
 |   Gtr I
e||---0--0--0--0--0---0--0--0---0--0-0-0-----|
B||o--0--0--0--0--0---0--0--0---0--0-0-0-----|
G||--13-13-13-13-13--11-11-11--11--9-9-9-----|
D||--14-14-14-14-14--12-12-12--12--7-7-7-0-0-|
A||o-14-14-14-14-14--12-12-12--12--9-9-9-0-0-|
E||---0--0--0--0--0---0--0--0---0--0-0-0-0-0-|


                       D.S. al Coda
                                      7x
e|------------------------------------||
B|-----------------------------------o||
G|----------9----------7-7------------||
D|---9h11-----11---7h9-----9---6---7--||
A|-----------------------------------o||
E|------------------------------------||
|
 |                                    7x
e|--------0----0-0-0-0-0-0-0-0-0------||
B|-3s5----5----5-5-5-5-5-5-5-5-5-0---o||
G|-4s6----6h7--7-7-7-7-7-7-6-6-6-0-6--||
D|-5s7----7----7-7-7-7-7-7-7-7-7-0-7--||
A|---0----0----0-0-0-0-0-0-0-0-0---7-o||
E|------------------------------------||


[Outro]

     &
     Gtr II
e||---------------------------------|-----------------------------3---||
B||o-9-9-9-9------------------------|-3s5-----------3-(3)------------o||
G||--9-9-9-9-7-9-(9)\---------------|-------0-------------0-----2-----||
D||--9-9-9-9-7----------------------|-5s7-----7-5---------0---0-------||
A||o-7-7-7-7---9-(9)\---------------|--------------------------------o||
E||--0-0-0-0------------------------|---------------------------------||
|
 |   Gtr I
e||---------------0---0-0-0-0-0-----|---------------------------2-2---||
B||o-9-9-9-9------x---x-x-x-x-x-----|-3s5-5-5-5s3-3-3--3--------3-3--o||
G||--9-9-9-9-7-9--x---x-x-x-x-x-0-0-|-0---0-0-0---0-0--0--0-0-0-2-2---||
D||--9-9-9-9-7----x---x-x-x-x-x-0-0-|-5s7-7-7-7s5-5-5--5--0-0-0-0-0---||
A||o-7-7-7-7---9--x---x-x-x-x-x-0-0-|--------------------------------o||
E||--0-0-0-0------x---x-x-x-x-x-----|---------------------------------||


Tablature Legend
----------------
 h   - hammer-on
 p   - pull-off
 b   - bend
 pb  - pre-bend
 r   - bend release (if no number after the r, then release immediately)
 /\  - slide into or out of (from/to "nowhere")
 s   - legato slide
 S   - shift slide
  - natural harmonic
[n]  - artificial harmonic
n(n) - tapped harmonic
 ~   - vibrato
 tr  - trill
 T   - tap
 TP  - trem. picking
 PM  - palm muting
\n/  - tremolo bar dip; n = amount to dip
 \n  - tremolo bar down
 n/  - tremolo bar up
/n\  - tremolo bar inverted dip
 =   - hold bend; also acts as connecting device for hammers/pulls
 <>  - volume swell (louder/softer)
 x   - on rhythm slash represents muted slash
 o   - on rhythm slash represents single note slash

Misc Legend
-----------
 |  - bar
||  - double bar
||o - repeat start
o|| - repeat end
*|  - double bar (ending)
 :  - bar (freetime)
 $  - Segno
 &  - Coda
Tempo markers -  = BPM(8/16=s8/s16), where s8 = swing 8ths, s16 = swing 16ths


***************************************************************************************
* Generated using Power Tab Editor by Brad Larsen - http://powertab.guitarnetwork.org *
***************************************************************************************
comments
print report bad tab
14 comments total. Showing first comments.
+1 reply
pearljam1o wrote on April 9 2006, 08:53 pm

Fantastic! The "Interlude" (lead) isn't right, but the rest is PERFECT.

0 reply
Dan_Lomax wrote on June 5 2006, 10:41 am

this definetely has the most accurate version of the solo i could find on UG. well done

0 reply
stef123 wrote on May 13 2007, 01:12 pm

Brilliant tab mate. good job!

I want to post or [tab]
guest
You may want to rate the tab now too:
select rating
Please do not post tabs as comments. Select "correction" instead!