Oops, an error
Loading. Please wait.

Rock And Roll Tab

version 2
version 2
3,688 views 1 this week
no commentswrite comment
1 2 3 4 5
please rate
add to favorites
launch autoscroll
font size
0
reset
how to read this tab
guitar tuner
Autoscroll
slow
fast
+/-
esc
set tempo
stop
Help us to improve Ultimate-Guitar.com Take our survey!
×
Contributor
aldoalain 559
|-----------------------------------------------------------------|
|-----------------------------------------------------------------|
|-----------------------------------------------------------------|
|-----------------------------------------------------------------|
|-3p0---3p0---3p0-3-3p0--3p0----3p0--3p0---2p0-2p0-3p0------------|
|-----3-----3----------------3-----------3-------------3----------|

|-----------------------------------------------------------------|
|-----------------------------------------------------------------|
|---5p2-5p2----------------------------------------2p0----5p0-----|
|-----------5-5p2p0-------------0-2p0-------0-2p0------2------0---|
|-0-----------------3b------0-3-------3p0-3-----------------------|
|-----------------------3-3---------------------------------------|

|-------------------5------------------------5------5-------------|
|-----------------5-------------------------------5---8p5---------|
|-5p2p0--0-3/7-7b-----7br5---7p5-------5--7b---7b---------6-------|
|--------------------------7-----7-5-7----------------------------|
|-----------------------------------------------------------------|
|-----------------------------------------------------------------|

|-----------------------------------------------------------------|
|-9p6---10p7---11p8----12p9----13p10----10----10-13b-13r10--------|
|-----8------9------10------11-------11----12--------------12-----|
|-----------------------------------------------------------------|
|-----------------------------------------------------------------|
|-----------------------------------------------------------------|

|-----------------------------------------------------------------|
|-13-12-10-----12b-12-10--10----12b-12-10----12----10-12--10-10---|
|----------11----------------11-----------11----11----------------|
|-----------------------------------------------------------------|
|-----------------------------------------------------------------|
|-----------------------------------------------------------------|

|-12----------15--15-15-15------------12--------------------------|
|----12b-10---15b-15b15b15b--15-14-15----13b-----8p5---8p5---8p5--|
|--------------------------------------------14------6-----6-----6|
|-----------------------------------------------------------------|
|-----------------------------------------------------------------|
|-----------------------------------------------------------------|

|----7b-5------------------------------------------------------------|
|-5-------5---5------8p5---8p5---8p5---8p5---8p5---8p5---8p5---8p5---|
|-----------7---7--7-----7-----7-----7-----7-----7-----7-----7-----7-|
|--------------------------------------------------------------------|
|--------------------------------------------------------------------|
|--------------------------------------------------------------------|

|------------------------------------------------------------------|
|-----------------7--5---------------------------------------------|
|-/7-5h7-5------5----5h7-5-----------------------------------------|
|----------7-7-------------7-7-------------------------------------|
|------------------------------------------------------------------|
|-----------------------------/------------------------------------|

Transcrita por Aldo Alain
comments
We did not receive enough feedback on this tab! Please rate:
print report bad tab
1 2 3 4 5
I want to post or [tab]
guest
You may want to rate the tab now too:
select rating
Please do not post tabs as comments. Select "correction" instead!