Oops, an error
Loading. Please wait.

Rock And Roll Bass Tab

version 2
version 2

Whole song

40,799 views 126 this week
no commentswrite comment
1 2 3 4 5
excellent!
x 6
add to favorites
launch autoscroll
font size
0
reset
guitar tuner
Autoscroll
slow
fast
+/-
esc
set tempo
stop
Help us to improve Ultimate-Guitar.com Take our survey!
×
Author
Difficulty
Song: Rock and Roll
Artist: Led Zeppelin

This Bass Tab has been redone for thoes who cant understand the other Rock
and Roll Bass Tab. I don't take ANY credit for this tab!!!!

Orgainal transcribed by Kyle Ford 2/25/99


[Intro]

                                               4x
G|----------r---------------| |------------------------------------|
D|----------e---------------| |*----------------------------------*|
A|----------s---------------| |*----------------------------------*|
E|----------t---------------| |------3h5--5--5--5------5--5--5-----|

G|-------------------------|--------------------------|
D|-------------------------|--------------------------|
A|--3h5--5--5--5--5--5--5--|--5--5--5--5--5--5--5--5--|
E|-------------------------|--------------------------|

G|---------------------------|
D|---------------------------|
A|---------------------------|
E|--3--h5--5--5--5--5--5--5--|

G|---------------------------|----------------------------|
D|---------------------------|----------------------------|
A|---------------------------|--5h7--7--7--7--7-----7--7--|
E|---5--5--5--5--5--5--5--5--|----------------------------|


G|------------------------|-------------------------|
D|------------------------|-------------------------|
A|-5h7--7--7--7--7--7--7--|-------------------------|
E|------------------------|--3h5--5--5--5--5--5--5--|

G|----------------------------|-----------------------------------|
D|----------------------------|-----------------------------------|
A|----------------------------|-----------------------------------|
E|--5--5--5----5--5--5--0--3--|-----------------------------------|


[Verse 1/3]

            3x
G|------------------------------| |--------------------------|
D|*----------------------------*| |--------------------------|
A|*----------------------------*| |--------------------------|
E|---3h5--5--5--5--5--5--5------| |--3--5--5--3--5--5--3--3--|

        3x
G|-------------------------------| |--------------------------|
D|*-----------------------------*| |--------------------------|
A|*-----------------------------*| |--------------------------|
E|----3h5--5----5--5--5--5--5----| |--3--5--5--3--5--5--3--3--|

                                    3x
G|--------------------------| |------------------------------|
D|--------------------------| |*----------------------------*|
A|--------------------------| |*--3h5--5--5--5--5--5-----5--*|
E|--3--5--5--3--5--5--3--3--| |------------------------------|

                                    3x
G|--------------------------| |-------------------------------|
D|--------------------------| |*-----------------------------*|
A|--3--5--5--3--5--5--3--5--| |*-----------------------------*|
E|--------------------------| |-----3h5--5--5--5--5--5--5-----|


G|--------------------------|--------------------------|
D|--------------------------|--------------------------|
A|--------------------------|---5h7--7--7--7--7--7--7--|
E|--3--5--5--3--5--5--3--3--|--------------------------|


G|------------------------|
D|------------------------|
A|--5h7--7--7--7--7--6----|
E|------------------------|


[Verse 2] 

G|----|-----r--|-------------------------------------------|
D|----|-----e--|-------------------------------------------|
A|-6--|--5--s--|-------------------------------------------|
E|----|-----t--|--------------------3h5--5--5--5--5--5--5--|


G|-----------------------------|
D|-----------------------------|
A|-----------------------------|
E|-----5--5--5--5--5--5--5--5--|


G|--------------------------|-----------------------------|
D|--------------------------|-----------------------------|
A|--------------------------|-----------------------------|
E|--5--5--5--5--5--5--5--5--|--5--5--3--3--2-----2--0--0--|

            7x
G|------------------------------|
D|*----------------------------*|
A|*----------------------------*|
E|----3h5--5--5--5--5--5--5-----|

                                3x
G|-----------------| |------------------------------|
D|-----------------| |*----------------------------*|
A|-----------------| |*--3h5--5----5--5--5--5--5---*|
E|--3--5--3--5--3--| |------------------------------|

                           3x
G|-----------------| |---------------------------|
D|-----------------| |*-------------------------*|
A|--3--5--3--5--3--| |*-------------------------*|
E|-----------------| |---3h5--5--5--5--5--5--5---|


G|---------------------|
D|---------------------|
A|---------------------|
E|------3--5--3--5--3--|


G|-------------------------|-------------------------|------r--|
D|-------------------------|-------------------------|------e--|
A|--5h7--7--7--7--7--7--7--|--5h7--7--7--7-----------|---5--s--|
E|-------------------------|----------------7--5--0--|------t--|


G|-------------------------|--------------------------|
D|-------------------------|--------------------------|
A|-------------------------|--------------------------|
E|--3h5--5--5--5--5--5--5--|--3h5--5--5--5--0--3--4---|


G|------------------------------|
D|------------------------------|
A|---------------------4--4--5--|
E|--5--5--5----5--5-------------|


G|---------------------|-------------------------|
D|---------------------|-------------------------|
A|--5--6--6--7---------|-------------------------|
E|--------------7--0---|--3h5--5--5--3--3--2--0--|


G|-------------------------------|
D|-------------------------------|
A|-------------------------------|
E|--3------h5--5--5--5--0--3--4--|

G|-------------------------|-----------------------------|
D|-------------------------|-----------------------------|
A|-------------------------|-----------------------------|
E|--3h5--5--5--3--3--2--0--|--3h5--5--5--5--5------5--5--|


G|-------------------------|-------------------------|
D|-------------------------|-------------------------|
A|--3h5--5--5--5--5--5--5--|--3h5--5--5--5--5--5--5--|
E|-------------------------|-------------------------|

G|----------------------------|
D|----------------------------|
A|----------------------------|
E|--3h5--5-----5--5--5--5--5--|


G|--------------------------|-----------------------------|
D|--------------------------|-----------------------------|
A|--------------------5--6--|--7--7--7--7--7--7--7--7-----|
E|--5--5--5--5--5--5--------|-----------------------------|


G|------------------|-------------------------|------------------------|
D|------------------|-------------------------|--5---------------------|
A|--5--5--5---------|-------------------------|-----8--7--5------------|
E|---------0--3--4--|--3h5--5--5--5--5--5--5--|-------------8--0-------|


G|--------------------------------------------------------------|
D|--------------------------------------------------------------|
A|--------------------------------------------------------------|
E|--------------------------------------------------------------|


[Guitar Solo]

G|------------------------------|-------------------------|
D|------------------------------|-------------------------|
A|------------------------------|-------------------------|
E|------3h5--5--5---5--0--3--3--|--3h5--5--5--5--5--5--5--|

                                          3x
G|-------------|--------------------| |---------------------------|
D|-------------|--------------------| |*-------------------------*|
A|-------------|--------------------| |*-------------------------*|
E|--3h5--5--5--|--3--2--3--5--3--3--| |---3h5--5--5--5--5--5--5---|

                                3x
G|---------------------| |----------------------------|
D|---------------------| |*--------------------------*|
A|---------------------| |*---3h5--5--5--5--5--5--5--*|
E|--3------5--3--5--3--| |----------------------------|


G|------------------|
D|------------------|
A|---3--5--3--5--3--|
E|------------------|

            3x
G|-----------------------------| |-----------------|
D|*---------------------------*| |-----------------|
A|*---------------------------*| |-----------------|
E|---3--h5--5--5--5--5--5--5---| |--3--5--3--5--3--|

G|-----------------------------|
D|-----------------------------|
A|--5h7--7--7--7--7--7--7------|
E|-----------------------------|


G|--------------------------|--------r--|----r--|--------------------------|
D|--------------------------|--------e--|----e--|--------------------------|
A|--7-----7-----7-----7--6--|----5---s--|----s--|--------------------------|
E|-----7-----7-----7--------|--------t--|----t--|--3h5--5--5--5--5--5--5---|


G|--------------------------|-------------------------|
D|--------------------------|-------------------------|
A|--------------------------|-------------------------|
E|--5--5--5--3--2--2--1--0--|--3h5--5--5--5--5--5--5--|


G|------------------------------|---------------------------------------|
D|------------------------------|---------------------------------------|
A|------------------------------|---------------------------------------|
E|--2--0--3--0------0--0--2--3--|---------------------------------------|


[Outro]

          2x
G|----------------------------| |---------------------------|
D|*--------------------------*| |---------------------------|
A|*--------------------------*| |---------4--4--5--5--6--6--|
E|---5--5--5--5--5--5--5--5---| |--5--5---------------------|

                                6x
G|----------------------------| |---------------------------|
D|----------------5--5--6--7--| |*-------------------------*|
A|--7--7----8--8--------------| |*-------------------------*|
E|----------------------------| |---3h5--5--5--5--5--5--5---|


G|-----------------------------|
D|-----------------------------|
A|-----------------------------|
E|--3h5--5--5--5--5------6--6--|
                                 3x
|--------------------------| |---------------------------|
|--------------------------| |*-------------------------*|
|--------------------4--4--| |*--3h5--5--5--5--5--5--5--*|
|--7--7--7--8--8--8--------| |---------------------------|


G|---------------------------|--------------------------|
D|---------------------------|--------------------------|
A|--5---5--5--5--5--5--------|--------------------------|
E|--------------------0--0---|--5--5--5--3--2--2--3--4--|

G|--------------------------|
D|--------------------------|
A|--------------------------|
E|--h5--5--5--5--5--5----0--|

G|-------------------------|-------------------------|
D|-------------------------|-------------------------|
A|-------------------------|-------------------------|
E|--3h5--5--5--5--5--5--0--|--3h5--5--5--5--5--5--5--|


G|----------------------------|
D|----------------------------|
A|----------------------------|
E|--3h5--5--5-----5--5--5--5--|

G|--------------------------------------------------|------|
D|--------------------6--6--------------------------|------|
A|--------------7--7--------7-----------------------|--5---|
E|--0--0--4--4-----------------4--0--0--0--0--0--0--|------|


[Optional fill]

G|--r--|--------------------|-----------------|---------------------------|
D|--e--|--------------------|-----------------|---------------------------|
A|--s--|--------------------|-----------------|---------------------------|
E|--t--|--------------------|--5--------------|---------------------------|
Suggest correction
comments
print report bad tab
guest
You may want to rate the tab now too:
select rating
Wanna post a correction for this tab? Suggest correction