Oops, an error
Loading. Please wait.

Rock And Roll Tab

version 3
version 3
182,872 views 282 this week
23 commentsread comments
1 2 3 4 5
x 30
add to favorites
launch autoscroll
font size
0
reset
how to read this tab
guitar tuner
Autoscroll
slow
fast
+/-
esc
set tempo
stop
Help us to improve Ultimate-Guitar.com Take our survey!
×
Author
ROCK AND ROLL
                           As recorded by Led Zeppelin
                      (From the 1972 Album LED ZEPPELIN IV)

Words and Music by Jimmy Page, Robert Plant, John Paul Johns & John Bonham
Transcribed by www.mikesguitarsite.co.uk

Gtr I (E A D G B E) - 'Jimmy Page - Rhythm dist electric'
Gtr II (E A D G B E) - 'Jimmy Page - Rhythm dist electric'
Gtr III (E A D G B E) - 'Jimmy Page - Lead dist electric'

[Intro]
   Q=172
  4/4
   Gtrs I, II
e|---------------------|--------------------|----------------------|
B|---------------------|--------------------|----------------------|
G|---------------------|--------------------|----------------------|
D|--2-----2-5-2-4------|------2-4---2-2-4-2-|-2-2-----2-5-2-4------|
A|--0-3b4-0-0---0-3b4==|=(3)r-0-0-0-0-0-0-0-|-0-0-3b4-0-0---0-3b4==|
E|---------------------|--------------------|----------------------|


   Gtr III
              ~~~~~~~~~~~~
e|--------------------|----------------------|---------------------|
B|------------8-8-8-8s|=7--------------------|------------7-7---7s=|
G|------------6-6-6-6s|=5--------------------|------------5-5---5s=|
D|--------------------|----------------------|---------------------|
A|--------------------|----------------------|---------------------|
E|--------------------|----------------------|---------------------|
|
 | Gtrs I, II
e|--------------------|----------------------|---------------------|
B|--------------------|----------------------|---------------------|
G|--------------------|-2-2-----2-5-2-4------|------2-4-2---2-4-2--|
D|------2-4---2-2-4-2-|-0-0-3b4-0-0---0------|------0-0-0-0-0-0-0--|
A|-(3)r-0-0-0-0-0-0-0-|-----------------3b4==|=(3)r----------------|
E|--------------------|----------------------|---------------------|


       ~~~~~~~~~~~~~~~~~~~~~~~~                      ~~~
e|----------------------|--------------------|------------------------|
B|-8-8-8----------------|-(8)--------8-8---9-|-(9)---9----------------|
G|-6-6-6----------------|-(6)--------6-6---7-|-(7)---7----------------|
D|----------------------|--------------------|------------------------|
A|----------------------|--------------------|------------------------|
E|----------------------|--------------------|------------------------|
|
e|----------------------|--------------------|------------------------|
B|----------------------|--------------------|------------------------|
G|----------------------|--------------------|------------------------|
D|---2-------5-2-4------|------2-4---2-2-4-2-|------------------------|
A|-0---3b4-0-0-----3b4==|=(3)r-0-0-0-0-0-0-0-|--2--2-----2-5p2-4------|
E|----------------------|--------------------|--0--0-3b5-0-0---0-3b4==|


    ~~~~~~~~~~~~~~~~~~~~~~~~
e|--------------------|------------------------|------------------------||
B|-(9)--------9-9---8-|-(8)--------------------|-(8)\-------------------||
G|-(7)--------7-7---6-|-(6)--------------------|-(6)\-----------------2-||
D|--------------------|------------------------|----------------------2-||
A|--------------------|------------------------|----------0-3b3.5-0---0-||
E|--------------------|------------------------|--------2-----------2---||
|
e|--------------------|------------------------|------------------------||
B|--------------------|------------------------|------------------------||
G|--------------------|------------------------|------------------------||
D|--------------------|--2--2-----2-5-2-4------|------2-4---2-----2-4-2-||
A|------2-4---2-2-4-2-|--0--0-3b4-0-0---0-3b4==|=(3)r-0-0-0-0-----0-0-0-||
E|-(3)r-0-0-0-0-0-0-0-|------------------------|------------------------||


[Verse]
     $
     Gtrs I, II, III
e||---------------|--------------|--------------|---------------|
B||o--------------|--------------|--------------|---------------|
G||----2---(2)----|---2---(2)----|---2---(2)----|---2----2------|
D||----2---(2)----|---2---(2)----|---2---(2)----|---2----2------|
A||o---0---(0)----|---0---(0)----|---0---(0)----|---0----0------|
E||--3------------|-3------------|-3------------|-3----3----3p0-|


e|--------------|--------------|--------------|----------------|
B|--------------|--------------|--------------|----------------|
G|---2---(2)----|---2---(2)----|---2---(2)----|---2----2-------|
D|---2---(2)----|---2---(2)----|---2---(2)----|---2----2-------|
A|---0---(0)----|---0---(0)----|---0---(0)----|---0----0-------|
E|-3------------|-3------------|-3------------|-3----3----3p0--|


e|--------------|--------------|--------------|----------------|
B|---3---(3)----|---3---(3)----|---3---(3)----|---3----3-------|
G|---2---(2)----|---2---(2)----|---2---(2)----|---2----2-------|
D|---0---(0)----|---0---(0)----|---0---(0)----|---0----0-------|
A|-3------------|-3------------|-3------------|-3----3----3p0--|
E|--------------|--------------|--------------|----------------|


e|--------------|--------------|--------------|----------------|
B|--------------|--------------|--------------|----------------|
G|---2---(2)----|---2---(2)----|---2---(2)----|---2----2-------|
D|---2---(2)----|---2---(2)----|---2---(2)----|---2----2-------|
A|---0---(0)----|---0---(0)----|---0---(0)----|---0----0-------|
E|-3------------|-3------------|-3------------|-3----3----3p0--|


                                                        To Coda
e|-------------------|--------------------|----------|----------|
B|-------------------|--------------------|----------|----------|
G|-------------------|--------------------|-7--------|----------|
D|-9-9-11-9-9-9-11-9-|-9-9-11-9-9-9-11-11-|-7--------|----------|
A|-7-7--7-7-7-7--7-7-|-7-7--7-7-7-7--7--7-|-5--------|----------|
E|-0-0---------------|--------------------|----------|----------|


   1.
   Gtr III
e|----------------------|--------------------|
B|----------------------|--------------------|
G|----------------------|--------------------|
D|----------------------|--------------------|
A|----------------------|--------------------|
E|----------------------|--------------------|
|
 | Gtrs I, II
e|----------------------|--------------------|
B|----------------------|--------------------|
G|----------------------|--------------------|
D|-2-2-----2-5-2-4------|------2-4-2-2-2-4-2-|
A|-0-0-3b4-0-0---0-3b4==|=(3)r-0-0-0-0-0-0-0-|
E|----------------------|--------------------|


                    ~~~~~~~~~~~~
e|-----------------------|-------------------------||
B|-----9------8-8---8----|-(8)------------(8)\----o||
G|-----7-----/6-6---6----|-(6)------------(6)\-----||
D|-----------------------|-------------------------||
A|-----------------------|------------------------o||
E|-----------------------|-------------------------||
|
e|-----------------------|-------------------------||
B|-----------------------|------------------------o||
G|-----------------------|-------------------------||
D|---2-----2--5p2-4------|------2-4-2-2-2--4---2---||
A|-0-0-3b4-0--0---0-3b4==|=(3)r-0-0-0-0-0--0---0--o||
E|-----------------------|-------------------------||


   2.
   Gtr III
                   ~~~~~~~~~~~~~~~~~~~~~~~~~~~
e|----------------------|--------------------|
B|-----8-----8-8---8----|-(8)----------------|
G|-----6-----6-6---6----|-(6)----------------|
D|----------------------|--------------------|
A|----------------------|--------------------|
E|----------------------|--------------------|
|
 | Gtrs I, II
e|----------------------|--------------------|
B|----------------------|--------------------|
G|----------------------|--------------------|
D|-2-2-----2-5-2-4------|------2-4-2-2-2-4-2-|
A|-0-0-3b4-0-0---0-3b4==|=(3)r-0-0-0-0-0-0-0-|
E|----------------------|--------------------|


  ~~~~~              ~~~~~~~~~~~~
e|------------------------|------------------------||
B|-(8)---8-----8-8---8----|-(8)------------(8)\----||
G|-(6)---6-----6-6---6----|-(6)------------(6)\----||
D|------------------------|------------------------||
A|------------------------|------------------------||
E|------------------------|------------------------||
|
e|------------------------|------------------------||
B|------------------------|------------------------||
G|------------------------|------------------------||
D|-----2-----2-5p2-4------|------2-4---2-2--4---2--||
A|--0--0-3b4-0-0---0-3b4==|=(3)r-0-0-0-0-0--0---0--||
E|------------------------|------------------------||


[Bridge]
   Gtr I
e|----------------------|----------------------|
B|----------------------|----------------------|
G|----------------------|----------------------|
D|---2-----2-5-2-4------|------2-4---2-2-4-2---|
A|-0-0-3b4-0-0-----3b4==|=(3)r-0-0-0-0-0-0-0---|
E|----------------------|----------------------|
|
 | Gtrs II, III
e|----------------------|----------------------|
B|----------------------|------5---5-----------|
G|----------------------|------5---5-----------|
D|----------------------|------------7-5-7---5-|
A|----------------------|----------------------|
E|----------------------|----------------------|


e|----------------------|-----------------------|
B|----------------------|-----------------------|
G|----------------------|-----------------------|
D|-2-2-----2-5-2-4------|------2-4---2-2-4-2----|
A|-0-0-3b4-0-0---0-3b4==|=(3)r-0-0-0-0-0-0-0----|
E|----------------------|-----------------------|
|
 | ~
e|----------------------|-----------------------|
B|----------------------|------5---5------------|
G|----------------------|------5---5------------|
D|-7--------------------|------------7-5-7---5--|
A|----------------------|-----------------------|
E|----------------------|-----------------------|


e|----------------------|----------------------|
B|----------------------|----------------------|
G|-2-2-----2-5-2-4------|------2-4-2---2-4-2---|
D|-0-0-3b4-0-0---0-3b4==|=(3)r-0-0-0-0-0-0-0---|
A|----------------------|----------------------|
E|----------------------|----------------------|
|
 | ~
e|----------------------|----------------------|
B|----------------------|------5---5-----------|
G|----------------------|------5---5-----------|
D|-7--------------------|------------7-5-7---5-|
A|----------------------|----------------------|
E|----------------------|----------------------|


e|----------------------|-----------------------|
B|----------------------|-----------------------|
G|----------------------|-----------------------|
D|---2-------5-2-4------|------2-4---2-2-4-2----|
A|-0---3b4-0-0-----3b4==|=(3)r-0-0-0-0-0-0-0----|
E|----------------------|-----------------------|
|
 | ~
e|----------------------|-----------------------|
B|----------------------|------5---5------------|
G|----------------------|------5---5------------|
D|-7--------------------|------------7-5-7---5--|
A|----------------------|-----------------------|
E|----------------------|-----------------------|


e|----------------------|----------------------|
B|----------------------|----------------------|
G|----------------------|----------------------|
D|----------------------|----------------------|
A|-2-2-----2-5p2-4------|------2-4---2-2-4-2---|
E|-0-0-3b4-0-0---0-3b4==|=(3)r-0-0-0-0-0-0-0---|
|
 | ~
e|----------------------|----------------------|
B|----------------------|------5---5-----------|
G|----------------------|------5---5-----------|
D|-7--------------------|------------7-5-7---5-|
A|----------------------|----------------------|
E|----------------------|----------------------|


e|----------------------------|--------------------------------------||
B|----------------------------|--------------------------------------||
G|----------------------------|--------------------------------------||
D|-2-2-----2-5-2---4----------|--------2---4-------2---2---4---2-----||
A|-0-0-3b4-0-0-----0---3b4====|=(3)r---0---0---0---0---0---0---0-----||
E|----------------------------|--------------------------------------||
|
 | ~
e|----------------------------|--------------------------------------||
B|----------------------------|--------------------------------------||
G|----------------------------|--------------------------------------||
D|-7--------------------------|--------------------------------------||
A|---------------0h3p0--------|--3p==0-----3p0h==3-3p0-----3p0-------||
E|--------------------------3-|----------3---------------3-------3---||


  [Guitar Solo]
   Gtr I
e|----------------------------|-----------------------------|
B|----------------------------|-----------------------------|
G|-----2---------(2)----------|-----2----(2)----------------|
D|-----2---------(2)----------|-----2----(2)----------------|
A|-----0---------(0)----------|-----0----(0)----------------|
E|-3--------------------------|-3---------------------------|
|
 | Gtr III
 |                                    ~
e|----------------------------|-----------------------------|
B|----------------------------|-----5-----------------------|
G|----------------------------|-----5-2---------------------|
D|----------------------------|-----------5p2---------------|
A|-3p0-----3p0----3p0-3-3p0---|-3p0-----------5-3-(3)p0---0-|
E|-------3-----3------------3-|-------------------------3---|


e|-----------------------------|-----------------------------------|
B|-----------------------------|-----------------------------------|
G|---2-----------(2)-----------|-----2-----------2-----------------|
D|---2-----------(2)-----------|-----2-----------2-----------------|
A|---0-----------(0)-----------|-----0-----------0-----------------|
E|-3---------------------------|-3-----------3-----------3p====0---|
|
e|-----------------------------|-----------------------------------|
B|-----------------------------|-----------------------------------|
G|-----------------------------|---------2p0-----4b5p0---5b6-2p0---|
D|-------------2p=0----------0-|-2p0---0-------2-------0---------0-|
A|-----0-3p0---------0-3p0-3---|-----------------------------------|
E|-3---------3-----------------|-----------------------------------|


e|------------------------|-------------------------|
B|------------------------|-------------------------|
G|---2------(2)-----------|-------2-------(2)-------|
D|---2------(2)-----------|-------2-------(2)-------|
A|---0------(0)-----------|-------0-------(0)-------|
E|-3----------------------|--3----------------------|
|
e|------------------5-----|-------------------------|
B|------------------------|-------------------------|
G|-0-5-5s7---5--7b9---7b9r|=(7)p5---7-5b7---------5-|
D|------------------------|-------7--------7--5-7---|
A|------------------------|-------------------------|
E|------------------------|-------------------------|


e|---------------------------------|
B|---------------------------------|
G|-------2----------(2)------------|
D|-------2----------(2)------------|
A|-------0----------(0)------------|
E|-3-------------------------------|
|
e|-----------5----------5----------|
B|-------------5-----5----5h8p5----|
G|-7b9==(7)r---7pb8-------------6--|
D|---------------------------------|
A|---------------------------------|
E|---------------------------------|


e|----------------------------------------|
B|----------------------------------------|
G|-------2---------------2----------------|
D|-------2---------------2----------------|
A|-------0---------------0----------------|
E|---3--------------3--------------3p===0-|
|
e|----------------------------------------|
B|-6h9p6-----7h10p7-----11p8----9h12p9----|
G|---------8----------9------10--------11-|
D|----------------------------------------|
A|----------------------------------------|
E|----------------------------------------|


e|-------------------------------------------|-------------------------------|
B|-----------3------(3)----------------------|--------3--------(3)-----------|
G|-----------2------(2)----------------------|--------2--------(2)-----------|
D|-----------0------(0)----------------------|--------0--------(0)-----------|
A|-----3-------------------------------------|---3---------------------------|
E|-------------------------------------------|-------------------------------|
|
e|-------------------------------------------|-------------------------------|
B|-10h13p10----10---10--13b17==(13)r(13)b17==|=(13)r-----10----13--12-10-----|
G|----------12----0--------------------------|--------------12-----------11--|
D|-------------------------------------------|-------(0)---------------------|
A|-------------------------------------------|-------------------------------|
E|-------------------------------------------|-------------------------------|


e|--------------------------------|
B|-------3--------(3)-------------|
G|-------2--------(2)-------------|
D|-------0--------(0)-------------|
A|--3-----------------------------|
E|--------------------------------|
|
 |             ~~~~~~~
e|--------------------------------|
B|-12b14---12-10-(10)-10----12b14-|
G|-----------------------11-------|
D|--------------------------------|
A|--------------------------------|
E|--------------------------------|


e|------------------------|--------------------------------|
B|----3--------3----------|--------------------------------|
G|----2--------2----------|----2-------(2)-----------------|
D|----0--------0----------|----2-------(2)-----------------|
A|-3--------3--------3p=0-|----0-------(0)-----------------|
E|------------------------|--3-----------------------------|
|
 |                           ~~                          ~~
e|------------------------|------------12------------------|
B|---12-10----12----10-12-|-10------10-----12b14==(12)r-10-|
G|---------11----11-------|------11------------------------|
D|------------------------|--------------------------------|
A|------------------------|--------------------------------|
E|------------------------|--------------------------------|


e|-----------------------------------|
B|-----------------------------------|
G|------2--------(2)-----------------|
D|------2--------(2)-----------------|
A|------0--------(0)-----------------|
E|---3-------------------------------|
|
 |   ~~~~
e|---------------15----15-----15-----|
B|-(10)---15b17--15b17-15b17--15b17==|
G|-----------------------------------|
D|-----------------------------------|
A|-----------------------------------|
E|-----------------------------------|


e|-------------------------------------|----------------------------|
B|-------------------------------------|----------------------------|
G|-------2-----------------(2)---------|-----2--------------2-------|
D|-------2-----------------(2)---------|-----2--------------2-------|
A|-------0-----------------(0)---------|-----0--------------0-------|
E|---3---------------------------------|--3--------------3------3p0-|
|
e|-(15)----16----(16)-----(16)---------|----------------------------|
B|-(15)r---15b17r(15)b17==(15)r--15-13-|-15-15pb17-13b14------------|
G|-------------------------------------|-------------------14\------|
D|-------------------------------------|----------------------------|
A|-------------------------------------|----------------------------|
E|-------------------------------------|----------------------------|


e|----------------------------------|------------------------|
B|----------------------------------|------------------------|
G|----------------------------------|------------------------|
D|-9---9---11---9---9---9---11-9----|--9---9-11-9-9-9--11-11-|
A|-7---7----7---7---7---7----7-7----|--7---7--7-7-7-7---7--7-|
E|-0---0----------------------------|------------------------|
|
e|-----------------------------8b9==|=(8)r-5-----------------|
B|-8p5------8p5-----8p5------5------|---------5---5----------|
G|-------7--------7-------7---------|-----------7---7\-------|
D|----------------------------------|------------------------|
A|----------------------------------|------------------------|
E|----------------------------------|------------------------|


   Gtr III
e|---------------------------------|-------------------------------------|
B|---------------------------------|-------------------------------------|
G|-7-------------------------------|-------------------------------------|
D|-7-------------------------------|-------------------------------------|
A|-5-------------------------------|-------------------------------------|
E|---------------------------------|-------------------------------------|
|
 | Gtrs I, II
e|---------------------------------|-------------------------------------|
B|-5h8p5---5h8p5---5h8p5---5h8p5---|-5h8p5---5h8p5---5h8p5---5h8p5-------|
G|-------7-------7-------7-------7-|-------7-------7-------7-------7p(0)-|
D|---------------------------------|-------------------------------------|
A|---------------------------------|-------------------------------------|
E|---------------------------------|-------------------------------------|


     ~                           ~~~~~~~~~~
e|------------------------|-----------------------|
B|------------------------|--------------------^7-|
G|-9s7-------------5-7----|--5---------------7-^7-|
D|------------------------|------7-----(7)--------|
A|------------------------|-----------------------|
E|------------------------|-----------------------|
|
e|------------------------|-----------------------|
B|------------------------|-----------------------|
G|------------------------|-----------------------|
D|---2-2-----2-5-2-4------|------2-4-2--2--2-4--2-|
A|---0-0-3b4-0-0---0-3b4==|=(3)r-0-0-0--0--0-0--0-|
E|------------------------|-----------------------|


                                     D.S. al Coda
                                 ~~~~~~~~~~
e|------------------------|------------------------||
B|-(7)-------------5-7----|--5-------------x-------||
G|-(7)-------------5-7----|--5-------------x-------||
D|------------------------|------7-----(7)-x-------||
A|------------------------|------------------------||
E|------------------------|------------------10\---||
|
e|------------------------|------------------------||
B|------------------------|------------------------||
G|------------------------|------------------------||
D|-----2-----2-5p2-4------|------2-4-2--2--2--4--2-||
A|--0--0-3b4-0-0---0-3b4==|=(3)r-0-0-0--0--0--0--0-||
E|------------------------|------------------------||


   &
   Gtr II
                                           ~~~
e|----------------------|--------------------|
B|----------------------|------8-8-8-8-8-8-8-|
G|----------------------|------6-6-6-6-6-6-6-|
D|----------------------|--------------------|
A|----------------------|--------------------|
E|----------------------|--------------------|
|
 | Gtr I
e|----------------------|--------------------|
B|----------------------|--------------------|
G|----------------------|--------------------|
D|-2-2-----2-5-2-4------|------2-4-2-2-2-4-2-|
A|-0-0-3b4-0-0---0-3b4==|=(3)r-0-0-0-0-0-0-0-|
E|----------------------|--------------------|


  ~~~~~                          ~~~~~~~~~~~~~~
e|------------------------|---------------------||
B|-(8)--------------------|------8-8-8-8-8-8-8--||
G|-(6)--------------------|------6-6-6-6-6-6-6--||
D|------------------------|---------------------||
A|------------------------|---------------------||
E|------------------------|---------------------||
|
e|------------------------|---------------------||
B|------------------------|---------------------||
G|------------------------|---------------------||
D|-----2-----2-5p2-4------|------2-4-2-2-2-4-2--||
A|--0--0-3b4-0-0---0-3b4==|=(3)r-0-0-0-0-0-0-0--||
E|------------------------|---------------------||


[Outro]
   ~                                       ~~~
e|----------------------|--------------------|
B|-8---x----------------|--------------8-8-8-|
G|-6---x----------------|--------------6-6-6-|
D|-----x----------------|--------------------|
A|----------------------|--------------------|
E|----------------------|--------------------|
|
e|----------------------|--------------------|
B|----------------------|--------------------|
G|----------------------|--------------------|
D|---2-----2-5-2-4------|------2-4---2-2-4-2-|
A|---0-3b4-0-0---0-3b4==|=(3)r-0-0-0-0-0-0-0-|
E|----------------------|--------------------|


  ~~~~~                                      ~
e|------------------------|---------------------|
B|-(8)--------------------|--------------8-8-7--|
G|-(6)--------------------|--------------6-6-5--|
D|------------------------|---------------------|
A|------------------------|---------------------|
E|------------------------|---------------------|
|
e|------------------------|---------------------|
B|------------------------|---------------------|
G|------------------------|---------------------|
D|--2--2-----2-5-2-4------|------2-4---2-2-4-2--|
A|--0--0-3b4-0-0---0-3b4==|=(3)r-0-0-0-0-0-0-0--|
E|------------------------|---------------------|


    ~~~
e|------------------------|--------------------|
B|-(7)--------------------|--------------7-7-7s|
G|-(5)--------------------|--------------5-5-5s|
D|------------------------|--------------------|
A|------------------------|--------------------|
E|------------------------|--------------------|
|
e|------------------------|--------------------|
B|------------------------|--------------------|
G|------------------------|--------------------|
D|-----2-----2-5-2-4------|------2-4---2-2-4-2-|
A|-----0-3b4-0-0---0-3b4==|=(3)r-0-0-0-0-0-0-0-|
E|------------------------|--------------------|


   ~
e|----------------------|----------------------|
B|-8--------------------|--------------8---8s==|
G|-6--------------------|--------------6---6s==|
D|----------------------|----------------------|
A|----------------------|----------------------|
E|----------------------|----------------------|
|
e|----------------------|----------------------|
B|----------------------|----------------------|
G|----------------------|----------------------|
D|-2-2-----2-5-2-4------|------2-4---2-2-4-2---|
A|-0-0-3b4-0-0---0-3b4==|=(3)r-0-0-0-0-0-0-0---|
E|----------------------|----------------------|


   ~
e|-----------------|-----------------|
B|-7---------------|---------------6s|
G|-5---------------|---------------4s|
D|-----------------|-----------------|
A|-----------------|-----------------|
E|-----------------|-----------------|
|
| PM----|   PM------------|   PM-----
|-----------------|-----------------|
|-----------------|-----------------|
|-2---4-2-2-------|---------2---4---|
|-0-0-0-0-0-0-0-0-|-0-0-0-0-0-0-0-0-|
|-----------------|-----------------|
|-----------------|-----------------|


   ~
e|-----------------|-------------------------|
B|-7---------------|---(7)---------------7s==|
G|-5---------------|---(5)---------------5s==|
D|-----------------|-------------------------|
A|-----------------|-------------------------|
E|-----------------|-------------------------|
|
|-------|   PM--|
|-----------------|-------------------------|
|-----------------|-------------------------|
|---------2---4---|-------2-----------------|
|-0-0-0-0-0-0-0-0-|-2s=4----4S0-----2-------|
|-----------------|-------------2s4---4S0---|
|-----------------|-------------------------|


   ~~~~~~~~~~~~~~~~~~~~~~~~~~~~~~~~~~~~
e|----------------------|---------------------|
B|-8--------------------|--8---8---8-8--------|
G|-6--------------------|--6---6---6-6--------|
D|----------------------|---------------------|
A|----------------------|----------------x\---|
E|----------------------|----------------x\---|
|
e|----------------------|---------------------|
B|----------------------|---------------------|
G|----------------------|---------------------|
D|-2-2-----2-5-2-4------|------2-4-2-2-2-4--2-|
A|-0-0-3b4-0-0---0-3b4==|=(3)r-0-0-0-0-0-0--0-|
E|----------------------|---------------------|


              ~~~~~~~~~~~~~~~~~~
e|-----------------------|---------------------|
B|---2-/8-----8-8-8-8----|-(8)-----------------|
G|---2-/6-----6-6-6-6----|-(6)-----------------|
D|-2---------------------|---------------------|
A|-0---------------------|---------------------|
E|-----------------------|---------------------|
|
e|-----------------------|---------------------|
B|-----------------------|---------------------|
G|-----------------------|---------------------|
D|-2-2------2-5-2-4------|------2-4---2-2-4-2--|
A|-0-0--3b4-0-0---0-3b4==|=(3)r-0-0-0-0-0-0-0--|
E|-----------------------|---------------------|


                                                             H.=H
   Gtr I
e|-----------------|------------------|----------|---------|-----||
B|-----------------|------------------|-3--------|---------|-----||
G|-----------------|----------------x-|-2--------|---------|-----||
D|-----------------|----------------x-|-0--------|---------|-----||
A|--------2-2--4-2-|--------2-2-2-4-x-|----------|---------|-----||
E|-0--3b4---0--0---|-0--3b4-----0-----|----------|---------|-----||


                                                      ~~~~~~
e|----------------------------------:--------------------------:----------*|
B|-5--(5)---------------------------:--------------------------:----------*|
G|--------(0)-----------------------:--------------------------:----------*|
D|-5--(5)---------------------------:-----5h7p5-7p5---5-(5)----:-0--------*|
A|-0--(0)-----0-3h5p3---3b3.5-0-3-5s:==7------------0----------:----------*|
E|--------------------0-------------:--------------------------:----------*|
|
 | Gtr II
e|----------------------------------:--------------------------:----------*|
B|----------------------------------:--------------------------:----------*|
G|-5--------------------------------:-(5)----------------------:----------*|
D|-6--------------------------------:-(6)-------------6--------:----------*|
A|-0--------------------------------:-(0)----------------------:----------*|
E|----------------------------------:--------------------------:----------*|


*****************************************************************************************

 h   - hammer-on
 p   - pull-off
 b   - bend
 pb  - pre-bend
 r   - bend release (if no number after the r, then release immediately)
 /\  - slide into or out of (from/to "nowhere")
 s   - legato slide
 S   - shift slide
 ~   - vibrato
 PM  - palm muting

Misc Legend
-----------
 |  - bar
||  - double bar
||o - repeat start
o|| - repeat end
*|  - double bar (ending)
 :  - bar (freetime)
 $  - Segno
 &  - Coda
Tempo markers -  = BPM(8/16=s8/s16), where s8 = swing 8ths, s16 = swing 16ths

*****************************************************************************************
Suggest correction
comments
print report bad tab
23 comments total. Showing first comments. show 2 bad comments
+2 reply
Joe@Disturbed16 200 Mar 29, 2005 12:00 AM

Nice Job Man, keep up the good work.

guest
You may want to rate the tab now too:
select rating
Wanna post a correction for this tab? Suggest correction