Oops, an error
Loading. Please wait.

Stairway To Heaven Bass Tab

version 1
version 1
183,589 views 309 this week
22 commentsread comments
1 2 3 4 5
x 63
add to favorites
launch autoscroll
font size
0
reset
guitar tuner
Autoscroll
slow
fast
+/-
esc
set tempo
stop
Help us to improve Ultimate-Guitar.com Take our survey!
×
Transcription by:  Hawk

STAIRWAY TO HEAVEN -Bass Tab
Led Zeppelin
"Led Zeppelin IV"
(Page/Plant)


[No bass until]

  C      G/B     Am         C   G/B Fmaj7  Am
G|--------------|----------|------------|-----------------|
D|--------------|----------|------------|-----------------|
A|-3------2-----|--------2-|-3----2-----|---------------2-|
E|--------------|-5--------|----------1-|---5-------------|
 If there's a bustle in your hedgerow...  

G|--------------|---------------------------|-------------|
D|--------------|-----7--7-------5--5-------|-------------|
A|-3------2-----|-----------5h7-----------2-|-3------2----|
E|--------------|-5--------------------5----|-----------1-|

G|--------------|-----------|-----------------|---------------------|
D|--------------|-----------|-----7-7-7-------|---7-----------------|
A|------------2-|-3----2----|------------7--5-|------5--------------|
E|-5------5-----|-----------|-5---------------|--------2-2---3--x-5-|

G|------------------|-7-----7------------|----------------|
D|--------7-------7-|---------7------7---|----------------|
A|-----7-----7--5---|-----------5------7-|-----------7--5-|
E|-5----------------|--------------------|-5-----5--------|

G|-----------------7-----|-------------------|-7----7------------||
D|------------4--7---7-7-|-----------------7-|--------7----------||
A|------5----------------|-----------7---5---|----------5----7-5-||
E|---5-------------------|-5----5------------|-------------------||

 
[Next Verse]

G|---------------|------------------|-------------|---------2----|
D|---------------|----------2-------|-------------|------------2-|
A|-3----x-x-2----|----------------2-|-3----2------|--------------|
E|---------------|-5-----5-----5----|-----------1-|---5----------|
 Your head is humming... 

G|---------------|-------------------|------------|---------------|
D|---------------|-------5\2---------|------------|---------------|
A|-3--------2----|-----------------2-|-3---2------|-------------2-|
E|---------------|-5-----------5-----|----------1-|---5---x-3-5---|

G|---------------|                 
D|---------------|  
A|-3--------2----|  
E|---------------|    


[Interlude]

G|--------------|---------------------|    
D|--------------|---------------------| 
A|-5--------5-5-|-5-----5-5-5-----5-5-|
E|--------------|---------------------|

Time Signature Changes During Interlude

G|---------|-------|---------------|---------------------|----------|
D|---------|-------|---------------|---------------------|----------|
A|-5--5--5-|-3-----|-----------5-5-|-5-----5-5-5-----5-5-|-5--5--5--| 
E|---------|-------|---------------|---------------------|----------|
       
G|-----------|-------------|
D|-----------|-------------|
A|-----------|-2-----------|
E|-----------|-------------|
     
                     
[Bass During Solo]

G|----------------|----------------------------|
D|----------------|----------------------------|
A|----------------|----------------------------|
E|-5----3--3----1-|-1--1----1-0-1-0-1----1-3-0-|

G|-----------------|-----------------------------|-------------------|
D|-----------------|-----------------------------|-------------------|
A|-----------------|-----------------------------|-------------------|
E|-5--5----x--3--3-|-1--1-1-1--1-1--0-1-0--1-3-0-|-5--5----3--3----1-|

G|------------------------------|-------------------|
D|-------3--3p0-----------------|-------------------|
A|------------------------------|-------------------|
E|-1--1----------1-1-1--1-1-3-0-|-5--5----3--3----1-|

G|------------------------------|---------------------|
D|--------3-----------3---------|---------------5-----|
A|------------------------0-1-1-|-----------------5---|
E|-1--1-1---1-1-1-0-1---1-------|-5--5----3-3-------0-|

G|---------------------------|----------------------------|
D|---------------------------|-------------7--------------|
A|---------------------------|---------7-7----------------|
E|-1--1--1--1-1-1--1-1-0-3-1-|-5--5----------3--3----3--3-|

G|----------------------------|----------------------------|
D|----------------------------|---------------------5------|
A|----------------------------|---------7---7---------5----|
E|-1--1-1----1-1--1-3-1-1-1-3-|-5--5------5---3--3------3--|

G|------------------------------|----------------------------|
D|---------3------3-3---3-------|----------------------------|
A|------------1/3-----3---3-----|---------7-----------5------|
E|-1--1---------------------1-3-|-5--5------0-5-3--3-----3-1-|
 
G|--------------------------------|---------------------------|
D|--------------------------------|---------------------------|
A|--------------------------------|---------7-----------5-----|
E|-1-1--1--1-x-x-1---1-1--1-x-3-4-|-5--5------5-3--3------3-0-|

G|----------------------------|-----------------------------|
D|---------------3----3-------|-----------------------5-----|
A|-----------0-3----3---3-----|-------------------------5---|
E|-1--1-------------------1-3-|-5-0--5----5-x-3--3--------3-|


                                    [Chorus]

                                    Repeat 7 times 
G|-------------------------------| |--------------------------|
D|-----------------0-2-3---3-3-3-| |*-------------------------|
A|---------------3---------------| |*-------------------------|
E|-1--1-1-1-1-1------------------| |--5--5-----5-3--3-----0-1-|
                                   And as we  . . 

G|--------------------------------| |-------------------------|
D|-------------------------------*| |-------------------------|
A|-------------------------------*| |-------------------------|
E|-1---1---1---1---(1--0--3--4-)--| |-5--5-------3--3-------1-|
                  

G|-----------------------------|-------------------------|
D|-----------------------------|-------------------------|
A|-----------------------------|-------------------------|
E|---1--1---0-1-1--1---1-0-3-4-|-5--5-------3--3-------1-|

G|-----------------------------|-----------------------|
D|---------------3-3-----------|------7----------------|
A|----------0--3-----3-0-0-----|------------------5----|
E|---1--1------------------1-3-|-5-------0--3--3-----1-|
 
G|----------------------------|-------------------------|
D|--------------3-------------|-------7-----------------|
A|----------------------------|----7--------------5-----|
E|---1--1---1-1----1--1-1-3p0-|-5----------3-3-3----0h1-|

G|----------------------------|-------------------------|
D|---------------3----3-------|-------------------------|
A|-----------0-3----3---3-----|------------------5------|
E|-1--1--1----------------1-3-|-5--0--5----3--3----3-1--|

                                ritard
G|-----------------------------|----------------------|
D|-----------------3-----3-----|----------------------|
A|-----------0-0-3---0-3---3---|----------------------|
E|-1--1--1-------------------0-|-5--5--5----3----3----|

G|-------------|---------------|---------|
D|-------------|---------------|---------|
A|-------------|---------------|---------|
E|-1-----------|-(1)-----------|-(1)-----|


************************************

| x    Dead note
| (n)  Ghost note
| h    Hammer-on
| p    Pull-off
| /    Slide up
| \    Slide down

************************************
Suggest correction
comments
print report bad tab
22 comments total. Showing first comments.
+2 reply
Vox 151 Nov 04, 2003 12:00 AM

beautiful song and good tab

0 reply
saturns_bassman 789 Jul 06, 2004 12:00 AM

UG Stranger is a faq!!!!

+1 reply
saturns_bassman 789 Aug 26, 2004 12:00 AM

i take it back dude!

guest
You may want to rate the tab now too:
select rating
Wanna post a correction for this tab? Suggest correction