Oops, an error
Loading. Please wait.

Stairway To Heaven Tab

211 views 18 this week
no commentswrite comment
1 2 3 4 5
2 more votes to show rating
add to favorites
launch autoscroll
font size
0
reset
how to read this tab
guitar tuner
Autoscroll
slow
fast
+/-
esc
set tempo
stop
Help us to improve Ultimate-Guitar.com Take our survey!
×
Author
Tuning
D G C F A D
-------------------------------------------------------------------------------
                      Stairway to Heaven (2007) - Led Zeppelin
-------------------------------------------------------------------------------
Tabbed by: Davide Bencivinni
E-mail: davidebncv@libero.it

Tuning: D tuning/1 step down (DGCFAD)

Taken from their live album/DVD "Celebration Day"

        ~~~                      ~~                                             ~~~
d |---------5----------------------------8-8-8-8b10-8-5------8--10p8-------------|
A |-----------8p5-------------------8b10----------------8s10---------10-8---8-10-|
F |-7b9-----------7p5---7p5-----------------------------------------------9------|
C |-------------------7-----7p5--------------------------------------------------|
G |-----------------------------8------------------------------------------------|
D |------------------------------------------------------------------------------|

                    ~~
d |---10p8---------------------------------------------------------------------------|
A |-8------10p8---10-----10p8---8s5----------------------8---------------8-----------|
F |-------------9------9------9-----7-5h7p5---5----5-7b9---7p5-7p5---7b9---7p5---5---|
C |-----------------------------------------7---7------------------7-----------7---7-|
G |----------------------------------------------------------------------------------|
D |----------------------------------------------------------------------------------|

                         ~           ~~                                           ~
d |--------------------------------------------------------------------------------|
A |-------5-8-5--------------------------------------------------------------------|
F |---7b9-------7-7p5---7--(5)--5---5----------10-------------------12----12----12-|
C |-7-----------------7-------7---7---------10----12p10----10-12s14----14----14----|
G |-------------------------------------/12-------------12-------------------------|
D |--------------------------------------------------------------------------------|

                 x11                ~~                                           ~~
d |--------------|-------------15b17---15b17-15-15b17-13--------------------------|
A |°---13-15b17-°|----13-13-13----------------------------------------------------|
F |-14-----------|-14-------------------------------------14b16-14b16-14-12-14-14-|
C |--------------|----------------------------------------------------------------|
G |°-------------|----------------------------------------------------------------|
D |--------------|----------------------------------------------------------------|

                                                                  ~
d |-15b17-15-15b17-13---------17------------------------------------15b17-15-13-|
A |---------------------17b20----17pb20-15----------15--------------------------|
F |----------------------------------------17-14-17----17-16-15-14--------------|
C |-----------------------------------------------------------------------------|
G |-----------------------------------------------------------------------------|
D |-----------------------------------------------------------------------------|

                                                            ~~               x4
d |-------15-16-17--------------------------------------------|-------18p15--|----15-18/-|
A |-17b20----------17-15h17----15-----------------------------|°-(15)-------°|-15--------|
F |-------------------------17----17-17p14-(14)-17p14----14---|--------------|-----------|
C |---------------------------------------------------17------|--------------|-----------|
G |-----------------------------------------------------------|°------------°|-----------|
D |-----------------------------------------------------------|--------------|-----------|

Suggest correction
Give kudos to tab author, rate the tab!
1 2 3 4 5
comments
print report bad tab
guest
You may want to rate the tab now too:
select rating
Wanna post a correction for this tab? Suggest correction