Oops, an error
Loading. Please wait.

Sunshine Woman Tab

version 1
version 1

Intro

Whole song

28 views 1 this week
no commentswrite comment
1 2 3 4 5
2 more votes to show rating
add to favorites
launch autoscroll
font size
0
reset
how to read this tab
guitar tuner
Autoscroll
slow
fast
+/-
esc
set tempo
stop
Help us to improve Ultimate-Guitar.com Take our survey!
×
Author
[Intro]

e|---------------------------------------------------------------------------|
B|---------------------------------------------------------------------------|
G|---------------------------------------------------------------------------|
D|--------------3--3----3-5--------------3--3----3-5-------------------------|
A|-----------5--------5---------------5--------5-----------------------------|
E|-3-3-3-3-3----------------3-3-3-3-3----------------------------------------|

e|---------------------------------------------------------------------------|
B|---------------------------------------------------------------------------|
G|---------------------------------------------------------------------------|
D|--------------3--3----3-5--------------3--3----3-5-------------------------|
A|-----------5--------5---------------5--------5-----------------------------|
E|-3-3-3-3-3----------------3-3-3-3-3----------------------------------------|

e|---------------------------------------------------------------------------|
B|---------------------------------------------------------------------------|
G|--------------3--3----3-5--------------3--3----3-5-------------------------|
D|-----------5--------5---------------5--------5-----------------------------|
A|-3-3-3-3-3----------------3-3-3-3-3----------------------------------------|
E|---------------------------------------------------------------------------|

e|---------------------------------------------------------------------------|
B|---------------------------------------------------------------------------|
G|---------------------------------------------------------------------------|
D|--------------3--3----3-5--------------3--3----3-5-------------------------|
A|-----------5--------5---------------5--------5-----------------------------|
E|-3-3-3-3-3----------------3-3-3-3-3----------------------------------------|

e|---------------------------------------------------------------------------|
B|---------------------------------------------------------------------------|
G|--------------5--5----5----------------3--3----3---------------------------|
D|-----------7--------7---7-----------5--------5---5-------------------------|
A|-5-5-5-5-5----------------3-3-3-3-3----------------------------------------|
E|---------------------------------------------------------------------------|

e|---------------------------2-2-2-2-2-2-2-2-2-------------------------------|
B|---------------------------1-1-1-1-1-1-1-1-1-------------------------------|
G|---------------------------2-2-2-2-2-2-2-2-2-------------------------------|
D|--------------3--3----3-5--0-0-0-0-0-0-0-0-0-------------------------------|
A|-----------5--------5------------------------------------------------------|
E|-3-3-3-3-3-----------------------------------------------------------------|

************************************

| x   Dead note
| g   Grace note
| (n) Ghost note
| h   Hammer-on
| p   Pull-off
| r   Release
| >   Accented note
| t   Tapping
| b   Bend
| br  Bend release
| pb  Pre-bend
| pbr Pre-bend release
| /   Slide up
| \   Slide down
| ~   Vibrato
| s   Slap
| P   Pop
| PM  Palm mute
| TR  Trill
| N   Tremolo

************************************
Suggest correction
Give kudos to tab author, rate the tab!
1 2 3 4 5
comments
print report bad tab
guest
You may want to rate the tab now too:
select rating
Wanna post a correction for this tab? Suggest correction