Oops, an error
Loading. Please wait.

Sunshine Woman Tab

version 1
version 1

Whole song

Video

46 views 3 this week
no commentswrite comment
1 2 3 4 5
3 more votes to show rating
add to favorites
launch autoscroll
font size
0
reset
how to read this tab
guitar tuner
×
Best way to learn
"Sunshine Woman"
Autoscroll
slow
fast
+/-
esc
set tempo
stop
Author
Difficulty
  follow
intermediate
Sunshine Woman
(Bonham, Jones, Plant, and Page)

From led Zeppelin BBC Sessions Remaster 2016 or 1982's Maxell Is Pleased To Present Led 
Zeppelin In Concert

[Intro And Vs. 1]

  G

e|---------------------------------------------------------------------------|
B|---------------------------------------------------------------------------|
G|---------------------------------------------------------------------------|
D|-----------5---3--3------3-5---------5---3--3------3-5---------------------|
A|-------------5--------5----------------5--------5--------------------------|
E|-3-3-3-3-3-------------------3-3-3-3-3-------------------------------------|

  G

e|---------------------------------------------------------------------------|
B|---------------------------------------------------------------------------|
G|---------------------------------------------------------------------------|
D|-----------5---3--3------3-5---------5---3--3------3-5---------------------|
A|-------------5--------5----------------5--------5--------------------------|
E|-3-3-3-3-3-------------------3-3-3-3-3-------------------------------------|

   C

e|---------------------------------------------------------------------------|
B|---------------------------------------------------------------------------|
G|-----------5-----3--3------3-5--------5------3--3----3-5-------------------|
D|-------------5---------5-----------------5---------5-----------------------|
A|-3-3-3-3-3------------------3-3-3-3-3--------------------------------------|
E|---------------------------------------------------------------------------|

  G

e|---------------------------------------------------------------------------|
B|---------------------------------------------------------------------------|
G|---------------------------------------------------------------------------|
D|-----------5---3--3------3-5---------5---3--3------3-5---------------------|
A|-------------5--------5----------------5--------5--------------------------|
E|-3-3-3-3-3-------------------3-3-3-3-3-------------------------------------|


  D                              C

e|---------------------------------------------------------------------------|
B|---------------------------------------------------------------------------|
G|-----------7----5--5----5---7-------------5----3--3----3--5----------------|
D|-------------7--------7---------------------5--------5---------------------|
A|-5-5-5-5-5---------------------3-3-3-3-3-----------------------------------|
E|---------------------------------------------------------------------------|

  G                            D7

e|---------------------------------------------------------------------------|
B|-----------------------------5-5-5-5-5-5-5-5-5-----------------------------|
G|-----------------------------4-4-4-4-4-4-4-4-4-----------------------------|
D|-----------5---3--3-----3-5--5-5-5-5-5-5-5-5-5-----------------------------|
A|-------------5--------5----------------------------------------------------|
E|-3-3-3-3-3-----------------------------------------------------------------|

[Verse 1]

G
I've got a baby y'know
G
She treats me fine
G
I've got a little woman wanna give me but her
G
A-give it all the time she's my
C
Sunshine baby
C                        G
She's nice and kind to me
D
A-give me breakfast in the mornin' ya know she
C                G D7
Also makes my tea

Let's go!

 [Vs. 2 @ 3]

   G                        C                           D

e|----3-----------------------8----------------------------10----------------------------|
B|---------------------------------------------------------------------------------------|
G|-/4----------------------/9--------------------------/11-------------------------------|
D|----------3-3----3-5-------------------8-8----8-10----------------10-10-----10-12------|
A|--------5------5------------------10-------10------------------12-------12-------------|
E|---------------------------------------------------------------------------------------|

  D7

e|-----
B|-----
G|--5--
D|--4--
A|--5--
E|-----

[Verse 2]

G
She got a little diamond
G
Shine like gold
G
Got a mortgage on my body
G
Got a lien on my soul
C
When my baby walks ya know
C                                             G
Her front teeth they shine like gold, they do
D
Well-a ya know she shine like diamond
C                                      C D7
But she got a mortgage on my soul, hah!

Harmonica|Piano Solo
G
Get up, get up, get up
C
Hah! alright, yeah, ah
D C D7

[Verse 3]

G
My baby when she walks ya know
G
Shakes just like a willow tree
C
Yes, my baby when she walks ya know
C                              G
Shakes just like a willow tree
D
She so mean and evil
C                          G  D7
She makes a monkey outta me

Whoah alright

[Solo]

e|------10-13p10-13br-13br-13-10----------10-13br-13br--------|
B|-13b---------------------------13-11-13--------------13-11--|
G|------------------------------------------------------------|
D|------------------------------------------------------------|
A|------------------------------------------------------------|
E|------------------------------------------------------------|

e|---18br-18br-18-15---18b15---18b15---18b15------|
B|------------------15------15------15------15----|
G|------------------------------------------------|
D|------------------------------------------------|
A|------------------------------------------------|
E|------------------------------------------------|

e|-18b15---18b15---18b15---18b15---18b15---18b15-------|
B|------15------15------15------15------15------15-----|
G|-----------------------------------------------------|
D|-----------------------------------------------------|
A|-----------------------------------------------------|
E|-----------------------------------------------------|

e|-18p15---        ---15-18b-18-15--15-----------------------------|
B|------15- X’s 15 ---------------18--18-15----------------------|
G|-----------------------------------------18p17p15--17p15---------|
D|-------------------------------------------------17-----17p15----|
A|-----------------------------------------------------------------|
E|-----------------------------------------------------------------|

e|-----------------------------------------------|
B|----------------------------------13-13--------|
G|--------------------12------12-15-------15-12--|
D|----------------------15-----------------------|
A|-17p16p15/13-15p13-----------------------------|
E|------------------15---------------------------|

e|----15---18b-18b-18b--18-15----15-----------------|
B|-/15--15--------------------18----18-15-----------|
G|----------------------------------------17-15\----|
D|--------------------------------------------------|
A|--------------------------------------------------|
E|--------------------------------------------------|

                                                        G#7 G7

e|-6p3p0------        --6-6--3-------------------------------3---|
B|-------6p3p0- X’s 5 ---------5-3---------------------------3---|
G|---------------------------------6p5p3---5-3------------5--4---|
D|---------------------------------------5-----5---3-5----4--3---|
A|------------------------------------------------5-------6--5---|
E|--------------------------------------------------------4--3---|



************************************

| /   Slide up
| p   Pull-off
| br  Bend release
| b   Bend
| \   Slide down

************************************
Suggest correction
Give kudos to tab author, rate the tab!
1 2 3 4 5
comments
print report bad tab
guest
You may want to rate the tab now too:
select rating
Wanna post a correction for this tab? Suggest correction