Oops, an error
Loading. Please wait.

Tangerine Tab

version 3
version 3
6,509 views 1 this week
2 commentsread comments
1 2 3 4 5
x 3
add to favorites
launch autoscroll
font size
0
reset
how to read this tab
guitar tuner
Autoscroll
slow
fast
+/-
esc
set tempo
stop
Author
Difficulty
intermediate
Their are diffrent strumming patterns throught the song if u listen to the song u can
 them. The original song is not played on a 6 string its played on a double neck Gibson SG
 is played on the 12 string neck. Their also is a bit of chorus behind it. The solo is 
 played with a metal slide
 Intro
e|---0--0--0--0-----3-3---2-2------0--0--0--0-----3-3---2-2---0-0-------|
B|---1--3--1--0-----0-0---3-3------1--3--1--0-----0-0---3-3---1-1-------|
G|---2--2--2--2-----0-0---2-2------2--2--2--2-----0-0---2-2---0-0-----0-|
D|---2-----2--------0-0-------0-0--2-----2--------0-0---------2-2--2-2--|
A|------------------2-2---------------------------2-2---------3-3-3-----|
E|------------------3-3---------------------------3-3-------------------|

e|--------------000-333-222-----2-0-2-3-2-0-2-|
B|--------------111-000-333-----3-3-3-3-3-3-3-|
G|-------0------222-000-222-----2-------------|
D|----0-0-------222-000-000-----0-------------|
A|---2-----0--------222-----------------------|
E|------------------333-----------------------|

e|---0--0--0--0-----3-3---2-2------0--0--0--0-----3-3---2-2--0-0-------|
B|---1--3--1--0-----0-0---3-3------1--3--1--0-----0-0---3-3--1-1-------|
G|---2--2--2--2-----0-0---2-2------2--2--2--2-----0-0---2-2--0-0-----0-|
D|---2-----2--------0-0-------0-0--2-----2--------0-0--------2-2--2-2--|
A|------------------2-2---------------------------2-2--------3-3-3-----|
E|------------------3-3---------------------------3-3------------------|
    Measuring.....                  Only finds.....


e|--------------000-333-222-----2-0-2-3-2-0-2--333-222-000--3--3-3-3-|
B|--------------111-000-333-----3-3-3-3-3-3-3--000-333-111--0--0-0-0-|
G|-------0------222-000-222-----2--------------000-222-222--0--0-0-0-|
D|----0-0-------222-000-000-----0--------------000-000-222--0--0-0-0-|
A|---2-----0--------222------------------------222----------2--2-2-2-|
E|------------------333------------------------333----------3--3-3-3-|
                                                           Tangarine.....

e|---2--2-2-2--0--0-0-0-| Play the chords G D C D G throught the whole
B|---3--3-3-3--1--1-1-1-| chorus in the same pattern and is played in every
G|---2--2-2-2--0--0-0-0-| chorus and is played the same in each chorus
D|---0--0-0-0--2--2-2-2-|
A|-------------3--3-3-3-|
E|----------------------|

e|---0--0--0--0-----3-3---2-2------0--0--0--0-----3-3---2-2---0-0-------|
B|---1--3--1--0-----0-0---3-3------1--3--1--0-----0-0---3-3---1-1-------|
G|---2--2--2--2-----0-0---2-2------2--2--2--2-----0-0---2-2---0-0-----0-|
D|---2-----2--------0-0-------0-0--2-----2--------0-0---------2-2--2-2--|
A|------------------2-2---------------------------2-2---------3-3-3-----|
E|------------------3-3---------------------------3-3-------------------|
    Thinking.....                 Does she.....

e|--------------000-333-222-----2-0-2-3-2-0-2-|
B|--------------111-000-333-----3-3-3-3-3-3-3-|
G|-------0------222-000-222-----2-------------|
D|----0-0-------222-000-000-----0-------------|
A|---2-----0--------222-----------------------|
E|------------------333-----------------------|

Solo

e|--------------10h12p10v----------------------------10--------------------10-|
B|---10v---13v-------------13p12h13v--13b-12--12h13-----12p10h12--12-12h13----|
G|----------------------------------------------------------------------------|
D|----------------------------------------------------------------------------|
A|----------------------------------------------------------------------------|
E|----------------------------------------------------------------------------|

e|---15b--15--19-19-19p17--17-19-20-20--|b
B|--------------------------------------|
G|--------------------------------------|
D|--------------------------------------|
A|--------------------------------------|
E|--------------------------------------|

Play the chorus one more time through

G D C D G

e|---333--333--333----2---2----2---2----2---2---2---2---2---2-|
B|---000--000--000------3--------3--------3-------3-------3---|
G|---000--000--000--2--------2--------2-------2-------2-------|
D|---000--000--000--------------------------------------------|
A|---222--222--222--------------------------------------------|
E|---333--333--333--------------------------------------------|
         ooooooooooooooohhhhhhhhh yyyyaaaahhhh haaaaaaaah

e|---0-----------0-----------0-----------0-----------0-----------0-----------|
B|---7--7--7--7--7--7--7--7--7--7--7--7--7--7--7--7--7--7--7--7--7--7--7--7--|
G|---7--7--7--7--7--7--7--7--7--7--7--7--7--7--7--7--7--7--7--7--7--7--7--7--|
D|---7-----------7-----------7-----------7-----------7-----------7-----------|
A|---------------------------------------------------------------------------|
E|---------------------------------------------------------------------------|
       Take it off                 Take it off         OFF            OFF

e|---0-----------|
B|---7--7--7--7--|
G|---7--7--7--7--|
D|---7-----------|
A|---------------|
E|---------------|
   OFF
e|--0---0------0---0----------------------------------------------|
B|--1---1------1---1--------------------1----------------3--------|
G|--0---0------0---0---------------0-----------------0------------|
D|--2---2------2---2----------2-----------------0-----------------|
A|--3---3------3---3-----3------------------2---------------------|
E|----------------------------------------------------------------|

e|---0------0--0---------------------------2---2------------------|
B|---1------1--1-------5--5-----3--3-------3---3------------------|
G|---2------2--2-------5--5-----4--4-------2---2------------------|
D|---2------2--2-------5--5-----5--5-------0---0------------------|
A|---0------0--0--------------------------------------------------|
E|----------------------------------------------------------------|


e|---------2-------2--2----3----2--------2-------------3-----2----|
B|---------3-------3--3----3----3----0---3-------------0-----3----|
G|---------2-------2--2----2----2----0---2-------------0-----2----|
D|---------0-------0--0----0----0----0---0-------------0-----0----|
A|-----------------------------------------------------2----------|
E|-----------------------------------------------------3----------|


e|---0--0--0--0----0---3-----------------3-|
B|---1--3--1--0----1---0-----12ha--------0-|
G|---2--2--2--2----2---0-----12ha--------0-|
D|---2-----2-------2---0-----------------0-|
A|---------------------2-----------------2-|
E|---------------------3-----------------3-|

Lyrics

Tangerine lyrics
Measuring a summer's day, I only finds it slips away to grey,
The hours, they bring me pain.

[Chorus]
Tangerine, Tangerine, Living reflection from a dream;
I was her love, she was my queen, And now a thousand years between.

Thinking how it used to be, Does she still remember times like these?
To think of us again? And I do.


Key
H = Hammer on
P = Pull off
HA = Harmonics
V = Vibrato or a whammy bar sound

Chords
G C D Am

I hope this helps u learn it the ending is kinda ify im not 100%  sure i just tried to
it sound good with the lyrics n chords plz leave comments so i can see if people say im right
Suggest correction
Give kudos to tab author, rate the tab!
1 2 3 4 5
comments
print report bad tab
2 comments total.
0 reply
wtfmates342 10 Jul 28, 2009 10:08 AM

This is pretty good. It's the 1975 Earl's Court version, am I wrong?

0 reply
Snowlab2 10 Dec 26, 2015 08:31 AM

It must be different from the studio version. As the lead up to the chorus is wrong, which after the Dsus2 D, it is C D G (in dramatic increasing fashion). chorus is just G C (C/Dbass) G C (C/Dbass) G.

guest
You may want to rate the tab now too:
select rating
Wanna post a correction for this tab? Suggest correction