Oops, an error
Loading. Please wait.

Tangerine Tab

version 3
version 3

Whole song

Video

2,143 views 3 this week
no commentswrite comment
1 2 3 4 5
please rate
add to favorites
launch autoscroll
font size
0
reset
how to read this tab
guitar tuner
Autoscroll
slow
fast
+/-
esc
set tempo
stop
Help us to improve Ultimate-Guitar.com Take our survey!
×
Author
Led Zeppelin - Tangerine

Intro + Verses:
--------------3--3--2--2--2-----2-------------3--3--2--2--(2)--|
--1--3--1--0--0--0--3--3--3--3--3--1--3--1--0-0--0--3--3--(3)--|
--2--2--2--2--0--0--2--2--2-----2--2--2--2--2-0--0--2--2--(2)--|
--2--2--2--2--0--0-----------------2--2--2--2-0--0-------------|
--0-----------2--2-----------------0----------2--2-------------|
--------------3--3----------------------------3--3-------------|

--------------------------------------------------3--3--2--2---|
--1--1-----1---------------------------1----1--1--0--0--3--3---|
--0--0-----0-----------0-----------0---2----2--2--0--0--2--2---|
--2--2--2--------2--2--------0--0------2----2--2--0--0---------|
--3--3--3-----3------------2-----------0----0--0--2--2---------|
--------------------------------------------------3--3---------|

---2--2--2----3--2---0-----2--|
---3--3--3----3--3---3-----3--|
---2--2--2----2--2---2-----2--|
------------------------------|
------------------------------|
------------------------------|

Last part of verses:
---------------2---2-2--|
------1---1-1--3---3-3--|
------0---0-0--2---2-2--|
------2---2-2-----------|
------3---3-3-----------|
------------------------|

Chorus:
--3---3-3-3---2---------------2---|
--0---0-0-0---3---1---1-1-1---3---|
--0---0-0-0---2---0---0-0-0---2---|
--0---0-0-0-------2---2-2-2-------|
--2---2-2-2-------3---3-3-3-------|      x2
--3---3-3-3-----------------------|

--3---3-3-3---2-------------------2-2-2------2-2-2--|
--0---0-0-0---3---1---1-1-1---1---3-3-3------3-3-3--|
--0---0-0-0---2---0---0-0-0---0---2-2-2------2-2-2--|
--0---0-0-0-------2---2-2-2---2---------------------|
--2---2-2-2-------3---3-3-3---3---------------------|
--3---3-3-3-----------------------------------------|

Guitar solo:
--------------------------------2---2-2---2-2-2---2---2-2---|
--1---1----1-1---1---1-1--1-1---3---3-3---3-3-3---3---3-3---|
--2---2----2-2---0---0-0--0-0---2---2-2---2-2-2---2---2-2---|
--2---2----2-2---2---2-2--2-2-------------------------------|
-----------------3---3-3--3-3-------------------------------|
-----------------3---3-3--3-3-------------------------------|

--1---1-1--1-1-------------------------------1---1----------|
--1---1-1--1-1-------------------------------1---1---1---1--|
--3---3-3--3-3---1---1-1---1-1-1---1---1-1---3---3---0---0--|
--3---3-3--3-3---2---2-2---2-2-2---2---2-2---3---3---2---2--|
--2---2-2--2-2---2---2-2---2-2-2---2---2-2---2---2---3---3--|
--1---1-1--1-1-------------------------------1---1---3---3—-|

--3---3---2---2-2---2-2---------------2---2-2--|
--0---0---3---3-3---3-3------1---1-1--3---3-3--|
--0---0---2---2-2---2-2------0---0-0--2---2-2--|
--0---0----------------------2---2-2-----------|
--2---2----------------------3---3-3-----------|
--3---3----------------------------------------|

After second chorus, keep repeating the following during the little solo:
--2-2-2--|
--3-3-3--|
--2-2-2--|
---------|
---------|
---------|

In the end it turns into:
--2-2-2---2---2-2--2—----|
--3-3-3---3---3-3--3-----|
--2-2-2---2---2-2--2-----|
-------------------------|
-------------------------|
-------------------------|


Ending:
-------------------------------------------------------------------|
--1---1----—-0-1-3—-----------------0-1-1—------------—----0-------|
--2---2---0--------0--0-0-0--0-0--2-------2--2-2-2--2-2-0----0-—0--|
--2---2---0--------0--0—0-0--0-0--3-------3--3-3-3--3-3-0-------0--|
----------2--------2--2-2-2--2-2--3-------3--3-3-3--3-3-2-------2--|
----------3--------3--3-3-3--3-3------------------------3-------3—-|

To get the ending right you have to listen to the song and then it'll get clear how to 
play it.
Suggest correction
Give kudos to tab author, rate the tab!
1 2 3 4 5
comments
print report bad tab
guest
You may want to rate the tab now too:
select rating
Please do not post tabs as comments. Select "correction" instead!