Oops, an error
Loading. Please wait.

Thank You Tab

version 1
version 1

Whole song

Interactive

91,699 views 159 this week
3 commentsread comments
1 2 3 4 5
accurate
x 14
add to favorites
launch autoscroll
font size
0
reset
how to read this tab
guitar tuner
Autoscroll
slow
fast
+/-
esc
set tempo
stop
Help us to improve Ultimate-Guitar.com Take our survey!
×
[Riff A]

e|---------3-2-0-0-2-----2-0---2---|----------3-2-0-0-2-----2-0---2---|
B|---------3-3-3-3-3-----3-3---3---|--------3-3-3-3-3-3-----3-3---3---|
G|-----2---2-2-2-2-2-----2-2---2---|------0---0-0-0-0-0-----0-0---0---|
D|-0-------------------------------|----------------------------------|
A|---------------------------------|2h3-------------------------------|
E|---------------------------------|----------------------------------|

                                                                      
e|---------3-2-0-0-2-----2-0---2---|---------2-------2-2---3(3)3-3-3-|
B|---------3-3-3-3-3-----3-3---3---|---------3-------3-3---3(3)3-3-3-|
G|-------0-0-0-0-0-0-----0-0---0---|-2-------2-------2-2---2(2)2-2-2-|
D|-----0---------------------------|-0-------------------------------|
A|-0h2-----------------------------|---------------------------------|
E|---------------------------------|---------------------------------|
                                                                end of riff A
                                                                
Repeat first 3 measures 
of the section above and
then proceed below.

                                                                      
e|---------2--(2)-(2)2-2-3(3)3-3---|-2--(2)-(2)-(2)-(2)-(2)-(2)-(2)--|
B|---------3--(3)-(3)3-3-3(3)3-3---|-3--(3)-(3)-(3)-(3)-(3)-(3)-(3)--|
G|-2-------2--(2)-(2)2-2-2(2)2-2---|-2--(2)-(2)-(2)-(2)-(2)-(2)-(2)--|
D|-0-------------------------------|-0--(0)-(0)-(0)-(0)-(0)-(0)-(0)--|
A|---------------------------------|---------------------------------|
E|---------------------------------|---------------------------------|

Rest for the next 4 measures
                                                                     
e|-----------------3-------3-------|-----------------3-------3-------|
B|-------------3---------------3---|-------------3-------3-------3---|
G|---------0-----------------------|---------0-----------------------|
D|-----2---------------2-----------|-----0---------------------------|
A|-3-------------------------------|-0h2-----------------------------|
E|---------------------------------|---------------------------------|

                                                                     
e|-------------2---3---2-----------|-2-----2-2-----2-2-----2-2---2-2-|
B|---------3---------------3-------|-3-----3-3-----3-3-----3-3---3-3-|
G|-----2-----------------------2---|-2-----2-2-----2-2-----2-2---2-2-|
D|-0-------------------------------|-0-----0-0-----0-0-----0-0---0-0-|
A|---------------------------------|---------------------------------|
E|---------------------------------|---------------------------------|

                                                                     
e|-2---2---2---2---2---2---2-------|-7---7---7--(7)7-7---7---7---0---|
B|-3---3---3---3---3---3---3-------|-9---9---9--(9)9-9---9---9---0---|
G|-4---4---4---4---4---4---4-------|-9---9---9--(9)9-9---9---9---0---|
D|-4---4---4---4---4---4---4-------|-9---9---9--(9)9-9---9---9---0---|
A|---------------------------------|---------------------------------|
E|---------------------------------|---------------------------------|

                                                                     
e|-2---2---2-----2-2-------2-------|-7---R---0--(0)-(0)-(0)--R-------|
B|-3---3---3-----3-3-------3-------|-9---R---2--(2)-(2)-(2)--R-------|
G|-4---4---4-----4-4-------4-----9-|-9---R---2--(2)-(2)-(2)--R-------|
D|-4---4---4-----4-4-------4-----9-|-9---R---2--(2)-(2)-(2)--R-------|
A|---------------------------------|---------------------------------|
E|---------------------------------|---------------------------------|

                                                                     
e|-0---0---0---0---0---0---0---0---|-3---3---3---3---3---3---3---3-3-|
B|-1---1---1---1---1---1---1---1---|-3---3---3---3---3---3---3---3-3-|
G|-0---0---0---0---0---0---0---0---|-0---0---0---0---0---0---0---0-0-|
D|-2---2---2---2---2---2---2---2---|-0---0---0---0---0---0---0---0-0-|
A|-3---3---3---3---3---3---3---3---|-2---2---2---2---2---2---2---2-2-|
E|---------------------------------|---------------------------------|

                                                                     
e|-2---2---2---2---3-3-3---3-3-3-3-|-2-------2-----2-2-2-2---2-2-2---|
B|-3---3---3---3---3-3-3---3-3-3-3-|-3-------3-----3-3-3-3---3-3-3---|
G|-2---2---2---2---2-2-2---2-2-2-2-|-2-------2-----2-2-2-2---2-2-2---|
D|-0---0---0---0---0-0-0---0-0-0-0-|-0-------0-----0-0-0-0---0-0-0---|
A|---------------------------------|---------------------------------|
E|---------------------------------|---------------------------------|

                                                                     
e|-0---0-0-0---0-0-0---0-0-0---0-0-|-3---3-3-3-----3-3-----3-3-----3-|
B|-1---1-1-1---1-1-1---1-1-1---1-1-|-0---0-0-0-----0-0-----0-0-----0-|
G|-0---0-0-0---0-0-0---0-0-0---0-0-|-0---0-0-0-----0-0-----0-0-----0-|
D|-2---2-2-2---2-2-2---2-2-2---2-2-|-0---0-0-0-----0-0-----0-0-----0-|
A|-3---3-3-3---3-3-3---3-3-3---3-3-|-2---2-2-2-----2-2-----2-2-----2-|
E|---------------------------------|---------------------------------|

                                                                     
e|-2---2-2-2---2-2-3-3-3---3-3-3-3-|-2---2-2-2---2-2-2-2-2---2-2-2-2-|
B|-3---3-3-3---3-3-3-3-3---3-3-3-3-|-3---3-3-3---3-3-3-3-3---3-3-3-3-|
G|-2---2-2-2---2-2-2-2-2---2-2-2-2-|-2---2-2-2---2-2-2-2-2---2-2-2-2-|
D|-0---0-0-0---0-0-0-0-0---0-0-0-0-|-0---0-0-0---0-0-0-0-0---0-0-0-0-|
A|---------------------------------|---------------------------------|
E|---------------------------------|---------------------------------|

                                                                     
e|-2---2-2-2---2-2-2---2---2---2---|-7---7---7--(7)7-7-----7-7---7---|
B|-3---3-3-3---3-3-3---3---3---3---|-9---9---9--(9)9-9-----9-9---9---|
G|-4---4-4-4---4-4-4---4---4---4---|-9---9---9--(9)9-9-----9-9---9---|
D|-4---4-4-4---4-4-4---4---4---4---|-9---9---9--(9)9-9-----9-9---9---|
A|---------------------------------|---------------------------------|
E|---------------------------------|---------------------------------|

                                                                     
e|-2-----2-2---2---2-----2-2-------|-7---R---0--(0)-(0)-(0)--R-------|
B|-3-----3-3---3---3-----3-3-------|-9---R---2--(2)-(2)-(2)--R-------|
G|-4-----4-4---4---4-----4-4-----9-|-9---R---2--(2)-(2)-(2)--R-------|
D|-4-----4-4---4---4-----4-4-----9-|-9---R---2--(2)-(2)-(2)--R-------|
A|---------------------------------|---------------------------------|
E|---------------------------------|---------------------------------|
        
                                                                     
e|---------3-2-0-0-2-----2-0---2---|---------3-2-0-0-2-----2-0---2---|
B|---------3-3-3-3-3-----3-3---3---|---------3-3-3-3-3-----3-3---3---|
G|---------2-2-2-2-2-----2-2---2---|-----0---0-0-0-0-0-----0-0---0---|
D|-0-------------------------------|-3-------------------------------|
A|---------------------------------|---------------------------------|
E|---------------------------------|---------------------------------|

                                   
e|---------3-2-0-0-2-----2-0---2---|
B|---------3-3-3-3-3-----3-3---3---|  Solo starts here (transcribed below),
G|-------0-0-0-0-0-0-----0-0---0---|  Continue with rythym work by repeating
D|-----0---------------------------|  Riff A thru solo.
A|-0h2-----------------------------|
E|---------------------------------|


[Acoustic solo]
                                                                     
e|---------------------------------|-------7-------------------------|
B|---------------------------------|-7-8-10-10-8-7---7-----------7-8-|
G|---------------------4-6-7---7-9-|---------------9---9-7-6-7-9-----|
D|-7--(7)-(7)--4-5-7---------------|---------------------------------|
A|---------------------------------|---------------------------------|
E|---------------------------------|---------------------------------|

                                                                            
e|-----7---------------------------7-|---------5-7-----------5-7---5--------|
B|(8)----10-10-8-8--(8)--7-8-10------|----5h7h8---------5h7h8-------8-7---8-|
G|-----------------------------------|-6h7-----------6h7--------------------|
D|-----------------------------------|--------------------------------------|
A|-----------------------------------|--------------------------------------|
E|-----------------------------------|--------------------------------------|

                                                                         
e|-------------------------------------|---------------------------------|
B|---8-8-8-7-7-7-----------------------|---------------------------------|
G|---------------------------------7-R-|-7--(7)--7-6-7-6-4-6---4---------|
D|---------------------------7-9-------|-0--(0)--------------7---5-7-4-5-|
A|-------------------------------------|---------------------------------|
E|-------------------------------------|---------------------------------|

                                                                     
e|---------------------------------|-------------------7-5-----------|
B|---------------------------------|-------------5-7-8-----8-7-5-7-8-|
G|---------------------------------|-------4-6-7---------------------|
D|-5---4-------------------4-5-7---|-----7---------------------------|
A|---7---7-5--(5)--5-4-5-7---------|---------------------------------|
E|---------------------------------|---------------------------------|
 
 
e|---------------------------------|-3------(3)-----(3)-----(3)------|
B|-8-7-7---7-------8-7-7---8-7-7---|-3------(3)-----(3)-----(3)------|
G|---------------------------------|-2------(2)-----(2)-----(2)------|
D|---------------------------------|---------------------------------|
A|---------------------------------|---------------------------------|
E|---------------------------------|---------------------------------|

Rest for the next 3 measures
                                                                     
e|-----5p0-2p0---------------------|---------------------------------|
B|-------------------3-------------|-------------1-------1-----------|
G|---------------2/4---4\2---------|---------0-------0---------------|
D|---------------------------0-----|-----2-------------------2p0---0-|
A|-----------------------------2-0-|-3---------------------------3---|
E|---------------------------------|---------------------------------|

                                                                     
e|---------------------------------|-------------0---2-------2---2---|
B|-----------------1---------------|---------3-------------------3---|
G|-------------0-------2p0---------|-----2---------------2-------2---|
D|-2p0-----0---------------2p0-----|-0---------------------------0---|
A|-----2-----------------------0h2-|---------------------------------|
E|---------------------------------|---------------------------------|

                                                                     
e|-3---3-3-2---2-2-2-2-2---2-2-2-2-|-2---2-2-2---2-2-2---2---2---2---|
B|-3---3-3-3---3-3-3-3-3---3-3-3-3-|-3---3-3-3---3-3-3---3---3---3---|
G|-2---2-2-2---2-2-2-2-2---2-2-2-2-|-4---4-4-4---4-4-4---4---4---4---|
D|-0---0-0-0---0-0-0-0-0---0-0-0-0-|-4---4-4-4---4-4-4---4---4---4---|
A|---------------------------------|---------------------------------|
E|---------------------------------|---------------------------------|

                                                                     
e|-7---7---7-----7-7-----7-7---7---|-2---2---2---2---2---2---2---2---|
B|-9---9---9-----9-9-----9-9---9---|-3---3---3---3---3---3---3---3---|
G|-9---9---9-----9-9-----9-9---9---|-4---4---4---4---4---4---4---4---|
D|-9---9---9-----9-9-----9-9---9---|-4---4---4---4---4---4---4---4---|
A|-0---0---0-----0-0-----0-0---0---|---------------------------------|
E|---------------------------------|---------------------------------|

                                   
e|-7-------0---------------R-------|
B|-9-------2---------------R-------|
G|-9-----2-2---------------R-------|  Rest for the next 4 measures
D|-9-----2-2---------------R-------|
A|-0-------------------------------|
E|---------------------------------|

                                                                     
e|-----5-7-5-----------------------|-------------------------3---0---|
B|-----------8-7-5-----------------|-------------1-------------------|
G|-----------------2-4-2-----------|---------0-----------------------|
D|-----------------------5-4-2---0-|-----2---------------------------|
A|-----------------------------3---|-3-------------------------------|
E|---------------------------------|---------------------------------|

                                                                     
e|---------------------------------|---------5---2---3p2-------------|
B|---------------------------------|---------------------3---3p0-----|
G|---------------------------------|-----2-----------------------2---|
D|-----0h2p0-----------0h2p0-------|-0-------------------------------|
A|-0h2---------0---0h2---------2---|---------------------------------|
E|---------------------------------|---------------------------------|

                                                                     
e|---------------------------------|---------------------------------|
B|---------------------------------|---------------------------------|
G|-2p0-----------------------------|---------------------------------|
D|-----4---2p0-----0h2p0---0-------|---------------------------------|
A|-------------0h2-------2-----2---|-3------(3)-----(3)-----(3)------|
E|---------------------------------|---------------------------------|

                                                                     
e|---------------------------------|---------------------------------||
B|---------------------------------|---------------------------------||
G|---------------------------------|-2------(2)-----(2)-----(2)------||
D|---------------------------------|-0------(0)-----(0)-----(0)------||
A|-2------(2)-----(2)-----(2)------|---------------------------------||
E|---------------------------------|---------------------------------||




************************************

| (n)  Ghost note
| h    Hammer-on
| p    Pull-off
| /    Slide up
| \    Slide down
| R    Rest

************************************
Suggest correction new What's this?
You can suggest a correction to this tab. Community and Mods will review your correction and vote to approve or reject it.
comments
print report bad tab
3 comments total.
0 reply
t9000045 11 wrote on May 13 2002, 12:00 am

Oh yeah very good I cant print this properly

0 reply
Unclesam186 255 wrote on May 1 2006, 08:07 pm

Flawless!! Really nice work

0 reply
LaGrange 714 wrote on October 3 2006, 02:12 pm

great tab i like the counts above the measures *5STARS*

guest
You may want to rate the tab now too:
select rating
Please do not post tabs as comments. Select "correction" instead!