Oops, an error
Loading. Please wait.

The Rain Song Tab

version 1
982,466 views 1,950 this week
88 commentsread comments
1 2 3 4 5
x 405
add to favorites
launch autoscroll
font size
0
reset
how to read this tab
guitar tuner
backing track
0:00
0:00
Autoscroll
slow
fast
+/-
esc
set tempo
stop
Tuning
E A D G B E
Tuning : 12 String accoustic
Studio Tuning: D G C G C D
Live Tuning:   E A D A D E (One step higher)

[Intro]
e|---0-------0--0--0----0-------0--0--0-------------------------------------------|
B|----7------7--7--7-----6------6--6--6-------5-5-3-2---3----3--3-----------------|
G|-----0-----0--0--0------0-----0--0--0-------4-4-4-4---3----3--3-----------------|
D|------7----7--7--7-------6----6--6--6-------5-5-5-5---3----3--3-----------------|
A|-------0---0--0--0--------0---0--0--0---0---0---------0----0--0-----------------|
E|--------------------------------------------------------------------------------|

e|-----------------0---0---0---0---0---0-0-----0---0---0---0---0---0-0------------|
B|-----------------11--9---12--11--4---9-9-----11--9---12--11--4---9-9------------|
G|-----2---4-4-----0---0---0---0---0---0-0-----0---0---0---0---0---0-0------------|
D|-----2---2-2-----11--9---12--11--4---9-9-----11--9---12--11--4---9-9------------|
A|-0-0-0---0-0-----0---0---0---0---0---8-8-----0---0---0---0---0---8-8------------|
E|--------------------------------------------------------------------------------|

[Verse]
e|--0----------------0---------------------------5--5--5-------5--5--5-----------|
B|--10/9----9---9----9-----9---9-----------------0--0--0-------0--0--0-----------|
G|--11/10---10--10---10----10--10----------------0--0--0-------0--0--0-----------|
D|--12/11---11--11---10----10--10----------------5--4--0---0-4-5--4--0-----------|
A|--0-------0---0----0-----0---0-------------------------------------------------|
E|-------------------------------------------------------------------------------|
1) It is the springtime of my loving,  The second season I am to know...
2) Slight variation with mellotron see below
3)It is the summer of my smiles       Flee from me keepers of the gloom
4) These are the seasons of emotion And like the winds they rise and
fall

e|--0----------------0---------------------------5--5--5-------5--5--5------------|
B|--10/9----9---9----9-----9---9-----------------0--0--0-------0--0--0------------|
G|--11/10---10--10---10----10--10----------------0--0--0-------0--0--0------------|
D|--12/11---11--11---10----10--10----------------5--4--0---0-4-5--4--0------------|
A|--0-------0---0----0-----0---0--------------------------------------------------|
E|--------------------------------------------------------------------------------|
You are the sunlight in my growing,    So little warmth I've felt before
Mellotron solo
Speak to me only with your eyes ohhhh  It is to you I give this tune
This is the wonder of devotion         I see the torch we all must hold

e|--0----------------0----------------------------5--5--5-------5--5--5-----------|
B|--10/9----9---9----9-----9---9------------------0--0--0-------0--0--0-----------|
G|--11/10---10--10---10----10--10-----------------0--0--0-------0--0--0-----------|
D|--12/11---11--11---10----10--10-----------------5--4--0---0-4-5--4--0-----------|
A|--0-------0---0----0-----0---0--------------------------------------------------|
E|--------------------------------------------------------------------------------|
It isn't hard to feel Me Glowing        I watched the fire that Grew so
mellatron solo
It isn't hard to recognize These things are clear from all from time to
This is the mistery of the quotient.quotient Upon us all a little rain
must fall

e|--------------------------------------------------------------------------------|
B|-2--2--2-------------------2--2--2-------------------2--2--2--------------------|
G|-2--4--4---2-4-0-2---0-----2--4--4--2-4-0-2---0------2--4--4--2-4-0-2---0-------|
D|-2--2--2-----------4---2---3--3--3----------4---2----4--4--4----------4---2-----|
A|-0-----0-------------------0-----0-------------------0-----0--------------------|
E|--------------------------------------------------------------------------------|
low.......
mellotron solo
time....  Ooooooooh...                 oh ohhh                   oh
ohhhhhhhh
Just a little rain... Oooooh... yeah...yeah....yeah...

e|----2-----------------5---------------4---4------0---2--0h2p0------0--2--0h2p0---|
B|2-2---2-----------0-4h--4---4-----4-2p--2---2----0-----------0-----0----------0--|
G|2-4-----4------(4)--------4-------2--------------0------------0----0-----------0-|
D|5-5-------5-4------------------------------------0-----------------0-------------|
A|0---------------------------------4--------------2-----------------2-------------|
E|---------------------------------------------------------------------------------|

e|-------------|
B|-------------|
G|--2--4--4----|
D|--2--2--2----|
A|--0--0--0----|
E|-------------|

[Bridge]
(Second Verse with mellotron)
e|---0-------0--0--0----0-------0--0--0-------------------------------------------|
B|----7------7--7--7-----6------6--6--6-------5-5-3-2---3----3--3-----------------|
G|-----0-----0--0--0------0-----0--0--0-------4-4-4-4---3----3--3-----------------|
D|------7----7--7--7-------6----6--6--6-------5-5-5-5---3----3--3-----------------|
A|-------0---0--0--0--------0---0--0--0---0---0---------0----0--0-----------------|
E|--------------------------------------------------------------------------------|

e|-----------------0---0---0---0---0---0-0-----0---0---0---0---0---0-0------------|
B|-----------------11--9---12--11--4---9-9-----11--9---12--11--4---9-9------------|
G|-----2---4-4-----0---0---0---0---0---0-0-----0---0---0---0---0---0-0------------|
D|-----2---2-2-----11--9---12--11--4---9-9-----11--9---12--11--4---9-9------------|
A|-0-0-0---0-0-----0---0---0---0---0---8-8-----0---0---0---0---0---8-8------------|
E|--------------------------------------------------------------------------------|

e|--0----------------0----------------------------5--5--5-------5--5--5-----------|
B|--10/9----9---9------9-----------9-12h-9p-------0--0--0-------0--0--0-----------|
G|--11/10---10--10------10-----10-----------------0--0--0-------0--0--0-----------|
D|--12/11---11--11-------10-----------------------5--4--0---0-4-5--4--0-----------|
A|--0-------0---0----------0------------------------------------------------------|
E|--------------------------------------------------------------------------------|

e|0------------------------------0-------------------------5--5--5-------5--5--5--|
B|10/9----9---9------9-12h-9p------9--------9-12h-9p-------0--0--0-------0--0--0--|
G|11/10---10--10--10----------------10---10----------------0--0--0-------0--0--0--|
D|12/11---11--11---------------------10--------------------5--4--0---0-4-5--4--0--|
A|0-------0---0------------------------0------------------------------------------|
E|--------------------------------------------------------------------------------|

e|0------------------------------0-------------------------5--5--5-------5--5--5--|
B|10/9----9---9------9-12h-9p------9--------9-12h-9p-------0--0--0-------0--0--0--|
G|11/10---10--10--10----------------10---10----------------0--0--0-------0--0--0--|
D|12/11---11--11---------------------10--------------------5--4--0---0-4-5--4--0--|
A|0-------0---0------------------------0------------------------------------------|
E|--------------------------------------------------------------------------------|

e|---------------------------------------------------------------------------|
B|2--2--2-------------------2--2--2-------------------2--2--2----------------|
G|2--4--4---2-4-0-2---0-----2--4--4--2-4-0-2---0------2--4--4--2-4-0-2---0---|
D|2--2--2-----------4---2---3--3--3----------4---2----4--4--4----------4---2-|
A|0-----0-------------------0-----0-------------------0-----0----------------|
E|---------------------------------------------------------------------------|

e|-----2--------------5--4h5p4-----4----4---4--------|
B|-2-2---2-----------4--------4----2--2---2---2------|
G|-2-4-----4--------4----------4---2-----------------|
D|-5-5-------5-4---0---------------------------------|
A|-0-------------------------------4-----------------|
E|---------------------------------------------------|

e|------5--4h5p4-------7------7--7-------|
B|-----4--------4----5----5---5--5-------|
G|----4----------4---5------5-5--5-------|
D|--0------------------------------------|
A|-------------------7--------7--7-------|
E|---------------------------------------|

e|---------------5---------------4---4------0---2--0h2p0------0--2--0h2p0----|
B|-----------0-4h--4---4-----4-2p--2---2----0-----------0-----0----------0---|
G|--------(4)--------4-------2--------------0------------0----0-----------0--|
D|------------------------------------------0-----------------0--------------|
A|---------------------------4--------------2-----------------2--------------|
E|---------------------------------------------------------------------------|

Played Louder and faster
e|---------------------------------------------------------------------------|
B|-----------------------------0--0--0---------------------------------------|
G|-0--0--0-------5------5------0--0--0------0--------0-0------0-0-------0----|
D|-2--2--2-------5------5------0--0--0------2---------------------------2----|
A|-0--0--0----2--3----2-3---0---------0-3b4-0---2-4h-----2-4h-----0-3b4-0----|
E|----------0-------0--------------------------------------------------------|

Ohh...    ........ Talk Talk Talk  Talk

e|---------------------------------------------------------------------------|
B|-----------------------------0--0--0---------------------------------------|
G|-0--0--0-------5------5------0--0--0------0--------0-0------0-0-------0----|
D|-2--2--2-------5------5------0--0--0------2---------------------------2----|
A|-0--0--0----2--3----2-3---0---------0-3b4-0---2-4h-----2-4h-----0-3b4-0----|
E|----------0-------0--------------------------------------------------------|

I've felt the coldness of my winter I never thought you would ever go...

e|---------------------------------------------------------------------------|
B|-----------------------------0--0--0---------------------------------------|
G|-0--0--0-------5------5------0--0--0------0--------0-0------0-0-------0----|
D|-2--2--2-------5------5------0--0--0------2---------------------------2----|
A|-0--0--0----2--3----2-3---0---------0-3b4-0---2-4h-----2-4h-----0-3b4-0----|
E|----------0-------0--------------------------------------------------------|

I cursed the gloom they set upon us pon us but I know that I love you so

e|------------------------------------------------------------------------]
B|-----------------------------0--0--0------------------------------------]
G|-0--0--0-------5------5------0--0--0------0--------0-0------0-0-------0-]
D|-2--2--2-------5------5------0--0--0------2---------------------------2-]
A|-0--0--0----2--3----2-3---0---------0-3b4-0---2-4h-----2-4h-----0-3b4-0-]
E|----------0-------0-----------------------------------------------------]

ooohhhhhhhhhhhhhhhhhh                  but I know that I love you so.

  4)These are the seasons...

[Outro]
e|---/9--9---9--7----7--5----------5-7h-----5--5---5-4p-----4-2-4--5---------|
B|---/7--7---7----7--5-------------5--------4--4---4----4---2-2-2--4---------|
G|---/7--7---7-------5-----------5----------4--4---4--------2-2-2--4---------|
D|---/7--7---7-------5----------------------0--0---0---------------0---------|
A|---0---0-----------0--------------------------------------4-4-4------------|
E|---------------------------------------------------------------------------|

e|---7-5-7--8----10-10---10--8--10--12/----------0----------------0----------|
B|---5-5-5--7----8---8---8------8--------------5---5---5--------5---5---5----|
G|---5-5-5--7----8---8---8------8------------6-------6--------6-------6------|
D|------------------------------------------7---------------7----------------|
A|---7-7-7-------10-10---10-----10--------0---------------0------------------|
E|---------------------------------------------------------------------------|

     p
e|---7-5-------5--2p0----------5p3---3----------0-----0---|
B|-------6------------------------4-4-4--------5-----4----|
G|---------7----------0------------5---5------0-----0-----|
D|--(0)-----------0---------0--0-------------0------------|
A|-------------------------------------------------4------|
E|--------------------------------------------------------|

e|-----0----0----0----0--------0------------|
B|----2----2----2----2--------2-------------|
G|---0----0----0----0--------2--------------|
D|--------------------------2---------------|
A|--2----2----2----2-------0----------------|
E|------------------------0-----------------|

***********************************

| /   Slide up
| h   Hummer-on
| p   Pull-off
| b   Bend
|(n)  Ghost note

***********************************
Suggest correction
comments
print report bad tab
88 comments total. Showing first comments.
+8 reply
Joekaffy2724 51 Jul 30, 2004 08:00 PM

Nice job

+2 reply
MCRrocks 35 Apr 04, 2005 08:00 PM

perfect! it deserves five starss!!!

+3 reply
ledzep71 10 Dec 22, 2005 12:45 PM

that was one of the best tabs i've ever played better than that guys bversion of stairway to heaven that was beautiful you are an amazing tabber!!!!!!!!!

guest
You may want to rate the tab now too:
select rating
Wanna post a correction for this tab? Suggest correction