Oops, an error
Loading. Please wait.

The Rover Tab

version 1
version 1

Solo

Whole song

Interactive

19,574 views 24 this week
6 commentsread comments
1 2 3 4 5
x 9
add to favorites
launch autoscroll
font size
0
reset
how to read this tab
guitar tuner
Autoscroll
slow
fast
+/-
esc
set tempo
stop
Help us to improve Ultimate-Guitar.com Take our survey!
×
Author
Difficulty
intermediate
The Rover
Led Zeppelin
Physical Graffiti [Disc 1]
Transcribed by: Jesse Kennedy

Comments:
This tab is mostly correct, might be a few errors so
if you have any suggestions just comment the tab
[please dont comment saying i have a slide in
the wrong place or i left out a vibrato(and there
are vibrato's that i haven't included) because if
you can play stuff like this, then you can figure
it out on your own]

Page plays this solo within the E Major scale.

Sorry, the tabbing looks sloppy, i shouldnt have
used powertab to tab it out.


|----------------------------------------|
|----------------------------------------|
|-----------9-11\------------------------|
|------9h11------------------7-9-9S11----|
|-9h11-------------------7-9-------------|
|-------------------/7S9-----------------|


|---------------------------------------9---------------|
|---------------------9h10p9----9-10-12----12-10b12r====|
|---------------9-11---------11-------------------------|
|-9h11p9-7-9S11-----------------------------------------|
|-------------------------------------------------------|
|-------------------------------------------------------|


|--------------------------------------------|
|-9-----------------------------9h10p9-------|
|---11-9------9-11-11------9-11--------11----|
|--------9h11---------9h11-------------------|
|--------------------------------------------|
|--------------------------------------------|


|---------9------------------------------------------|
|-9-10-12---12-9h10p9-----9--------------------------|
|----------------------11---11p9-x-11p9-9------------|
|------------------------------------------11-9S7----|
|----------------------------------------------------|
|----------------------------------------------------|


|------------------------------------------|
|------------------------------------------|
|------------------9-9-9-9------9-9-9-9----|
|-9p7-x-7-7h9-9S11---------9S11------------|
|------------------------------------------|
|------------------------------------------|


|------------------------14-------------17---------------17----|
|--------------------14-----17b19r17-14----17pb19r17-14--------|
|------9-9-9-9-16b18-------------------------------------------|
|-9S11---------------------------------------------------------|
|--------------------------------------------------------------|
|--------------------------------------------------------------|


|--------------17--------------17--------------------------------|
|-17pb19r17-14----17pb19r17-14----17pb19r17-14-14----------------|
|-------------------------------------------------16-14----------|
|-------------------------------------------------------16-14----|
|----------------------------------------------------------------|
|----------------------------------------------------------------|


Tablature Legend
----------------
 h   - hammer-on
 p   - pull-off
 b   - bend
 pb  - pre-bend
 r   - bend release (if no number after the r, then release immediately)
 /\  - slide into or out of (from/to "nowhere")
 s   - legato slide
 S   - shift slide
  - natural harmonic
[n]  - artificial harmonic
n(n) - tapped harmonic
 ~   - vibrato
 tr  - trill
 T   - tap
 TP  - trem. picking
 PM  - palm muting
\n/  - tremolo bar dip; n = amount to dip
 \n  - tremolo bar down
 n/  - tremolo bar up
/n\  - tremolo bar inverted dip
 =   - hold bend; also acts as connecting device for hammers/pulls
 <>  - volume swell (louder/softer)
 x   - on rhythm slash represents muted slash
 o   - on rhythm slash represents single note slash

hope this was of some help. great song. if i get around to it, i will tab out the rest of the song.
Suggest correction
comments
print report bad tab
6 comments total. Showing first comments.
+1 reply
-Rock-N'-Roll- 50 Feb 17, 2007 06:22 PM

Wrong key

+2 reply
-Rock-N'-Roll- 50 Feb 18, 2007 01:38 PM

Oh sorry im mistaken great tab

0 reply
neo14085 100 May 19, 2009 07:59 AM

lol no bad, i used a lot of this tab but i learned a fair bit by ear

guest
You may want to rate the tab now too:
select rating
Wanna post a correction for this tab? Suggest correction