Oops, an error
Loading. Please wait.

The Rover Tab

version 2
version 2

Whole song

Interactive

16,198 views 3 this week
12 commentsread comments
1 2 3 4 5
worth learning
x 8
add to favorites
launch autoscroll
font size
0
reset
how to read this tab
guitar tuner
Autoscroll
slow
fast
+/-
esc
set tempo
stop
Help us to improve Ultimate-Guitar.com Take our survey!
×
Author
jim-jams 249
|-------------------------------------------------------------------------|
                             The Rover- Led Zeppelin
|-------------------------------------------------------------------------|

 
 

Tuning:Standard
                                                           (   3 times  )
e|------------------20-020--------------------0---------------------------|
B|------------------------5------------------7-5-0~-----------------------|
G|-----------------------------------------------0~--------b3b0-----------|
D|--------------0/2~-------2-------------0/2~----5~2p0---b42---220-02-----|
A|222--------0------------~2~---------0-----------------------------------|
E|000--33-553-3-----------~0~---33-553-3--------------0~------------b2-0~x|

e|-------------|
B|-------------|
G|--b3b0-------|
D|b42---22002--|
A|-------------|
E|-----------20|

e|------------------------------------------------------------------------|
B|------------------------------------------------------------------------|
G|11-1111-99-7--7/12\11-1111-1414-9-9/12\11-1111-99-7--7/12\11-1111-1414-9|
D|11-1111-99-7--7/12\11-1111-1414-9-9/12\11-1111-99-7--7/12\11-1111-1414-9|
A|-9--9-9-77-5--5/10\-9--9-9-1212-7-7/10\-9--9-9-77-5--5/10\-9--9-9-1212-7|
E|------------------------------------------------------------------------|

e|------------------------------------------------------------------------|
B|-----------------------------------------------------------------2------|
G|9/12\11-1111-99-7-777-66-4-444--------------b3b0-----------b3b0-b4b30---|
D|9/12\11-1111-99-7-777-66-4-444----2-------b42---22002----b42---2-----2--|
A|7/10\-9--9-9-77-5-555-44-2-222-210--------------------------------------|
E|-----------------------------------320--0-----------b20---------------0-|

e|----------------------------------5--42------5--97----------------------|
B|---------------------------------7--5-------7--7--------------10--97----|
G|---b3b0------------b3b0---------6--4--2----6--6-------------11---9------|
D|2b42---22002----2b42---22002--4~--------5\4-------11/12\11-11---9-------|
A|------------------------------4~-------------------9/10\-9--------------|
E|-----------b20-------------b20------------------------------------------|

e|-----5-----9------------------------------------------------------------|
B|----7---1010------99-----10\9-9--7-7---5----4--2---5--------------------|
G|7\66--99----------99---11------9-77-7--464~4-4-20h2-----b3b0------------|
D|5\4---77----99---x99-11----------7------64-----2----2-b42---22002------2|
A|------------77-9x7---------------5--------------------------------------|
E|---------------------------------5-------------------0----------b20-----|

e|---------------------------------------------------25---42--------------|
B|--------2----------------------------------------x2---5-53--------------|
G|--b3b0-b4-b30-------b3b0----------b3b0-----------x---4--42--------------|
D|b42---22-----2---2b42---22002--2b42---22002------4-----------2p0-9\\11--|
A|-------------------------------------------------4---------------7\\-9--|
E|--------------0-------------b20-----------b20----2----------------------|

e|-----------9---------------------------------------------9--------------|
B|----10----9-9----------------10---97--------------10----9---------------|
G|--11---999---9-------9-11--11----997---777/--11--11---99---99------44---|
D|11-----77----9----911--1111----99------777/--1111-----77---99-0h22-22---|
A|------------77-911------9------77---0h5555/---9------------77-----------|
E|------------------------------------------------------------------------|
                           (   5x    )
e|--5---4--2--2-0---------------------------------------------------------|
B|-7-7---5-3---3-2--4-2-----7-77-799\-7-77-799/-----5-7-77-799\-7-77-799--|
G|6-----4--2-2----44-4-2----7-77-799\-7-77-799/---46--7-77-799\-7-77-799--|
D|----------------4---------7-77-799\-7-77-799/-46----7-77-799\-7-77-799--|
A|----------------2-----/7------------------------------------------------|
E|------------------------0~---------0-------------------------0----------|

e|---------------------------02--4h54-457976b~-420------0h22---0h2454-4---|
B|-----7-----------2-020---/2--------7---------------0h2----0h2------7----|
G|----9----------24-----2-------------------------------------------------|
D|--79-------2-/4---------------------------------------------------------|
A|79-------04-------------------------------------------------------------|
E|-------02---------------------------------------------------------------|

e|-5797-45424--2p0--2p0--------------0000--0000--0000~-----14b1317-14p12--|
B|----------------------0h20-------/2----/2----/2-----b1214-------------14|
G|-------------------------2h422-h2---------------------------------------|
D|------------------------------------------------------------------------|
A|------------------------------------------------------------------------|
E|------------------------------------------------------------------------|

  (   3x  )
e|1714p12-----------------------------------------------------------------|
B|-------14--b121210------------------------------------------------------|
G|------------------119~--------b3b0-------------b3b0-------------b3b0----|
D|--------------------------2b42----22002----2b42----22---2---2b42----2200|
A|----------------------------------------------------b4b4----------------|
E|--------------------------------------b20---------------b20-------------|

e|----------------------------------25---42----------5----9---------------|
B|---------------------2---5-------2----553---------7---1010--------------|
G|----------b3b0-------20h2------------4-42--4/7\6-6---9-----------7h9p7h9|
D|2-----2b42----2----2~2---------------------2/5\4-----------------7h9p7h9|
A|---------------b3b3-------------4~~~----------------------77-9h11-------|
E|-b20----------------------0~----2~~~--------------------0-00------------|


e|-----------------------------~9~----------------------------------------|
B|-------10--97------------10-1010---------------10--9--7-7--5-4-4--222---|
G|11---11---9-7----------11--9-----------------11--11-9-77-7-4644-4-222---|
D|11-11----9----777/12-11------------9/12\11-11---------7-----64----2220h2|
A|-9------------555/10-----------77--7/10\-9------------5-----------------|
E|-------------------------------00---------------------------------------|

e|------------------------------------------------------------------------|
B|--------------------------0------------------------0-0------------------|
G|-----b3b0-----------b3b0-b340-------b3b0----------b3b300----------------|
D|--2b42---22002---2b42--h2----2--2b42---22002---2b42--b4-22--5575h6~-----|
A|------------------------------------------------------------------------|
E|0~------------b200------------0------------b20--------------------------|

   (   2x   )
e|-------------------0-0--------------------------------------------------|
B|------------------0---0----------------------------------------h02------|
G|-------h3/4-0020h1--0----------------------------------0------0h020-----|
D|-5575h6~--------------------022242----2p0o0/2-2---00-00-0h2--------0h2--|
A|-------------------------0h2--------------------------------------------|
E|----------------------------------00---------0-0----------------------0-|

e|------------------------------------------------------------------------|
B|------------------------------------------------------------------------|
G|-------------------------------------------------00---000-0h2p0---------|
D|-5h75h75--------5h75h75--5--5h75h75-----------0h2--0h2---------2--------|
A|--------757---------------7--------757----------------------------------|
E|-----------------------xx---------------------------------------0~------|

                                                        ( repeat  fading)
e|---------------------------------------------------------333--3333-5p30-|
B|-------------------------------------------------------35333353333-5p35-|
G|---------------------------------------00---000h2-----------------------|
D|---55--555h7-------55--555/7--------0h2--0h2----------------------------|
A|-57--57-----7----57--57-----0h7-----------------------------------------|
E|------------0-----------------0------------------0----------------------|

e|------------------------------------------------------------------------|
B|------------------------------------------------------------------------|
G|------------------------------------------------------------------------|
D|------------------------------------------------------------------------|
A|------------------------------------------------------------------------|
E|------------------------------------------------------------------------|


| /  slide up
| \  slide down
| h  hammer-on
| p  pull-off
| ~  vibrato
| +  harmonic
| x  Mute note
    %%
|=========================================================================|
Suggest correction new What's this?
You can suggest a correction to this tab. Community and Mods will review your correction and vote to approve or reject it.
comments
print report bad tab
12 comments total. Showing first comments.
0 reply
Calvin000 53 wrote on July 9 2005, 12:00 am

Could you maybe space out the notes a little bit more? It's really hard to read. Great song though.

0 reply
boldaslove 116 wrote on November 8 2005, 02:02 pm

its kinda sloppy, and lazy.

0 reply
Faydock 11 wrote on January 13 2006, 10:13 pm

I agree with Calvin000 about the spacing, somethings are a tiny bit off but other than that this tab is great.

guest
You may want to rate the tab now too:
select rating
Please do not post tabs as comments. Select "correction" instead!