Oops, an error
Loading. Please wait.

The Rover Tab

version 4
version 4

Whole song

Interactive

26,233 views 174 this week
2 commentsread comments
1 2 3 4 5
excellent!
x 9
add to favorites
launch autoscroll
font size
0
reset
how to read this tab
guitar tuner
Autoscroll
slow
fast
+/-
esc
set tempo
stop
Help us to improve Ultimate-Guitar.com Take our survey!
×
Author
Difficulty
intermediate
[Intro]

e|---------------------------------------------------------------------------|
B|-------------------------------------------------10p9------9---10p9---9----|
G|-------------------------------------------------11p9------9---11p9---9----|
D|-------------5---5---7---7---5---7---5-----------------9-------------------|
A|-----------------------------------------5h7~------------------------------|
E|0---0---0~---3---3---5---5---3---5---3-------------------------------------|
                                                            
e|--------------------------------------------------------------|
B|-------------------------------------------10--9--------------|
G|-------------------------------------------11--9--0-----------|
D|-----5---5---7---7---5---7---5--------------------0---0---2p0-|
A|----------------------------------5h7~p0----------------------|
E|0~---3---3---5---5---3---5---3--------------------------------|

                                                                    x4
e|----------------------------------------------------------------------|
B|----------------------------------------------------------------------|
G|----------------3b(4)-------------------------------------------------|
D|----4b(5)---2-----------4b(6)---2---2-------------------2-------------|
A|----------------------------------------4b(5)---4b(5)-----------------|
E|0-----------------------------------------------------------3b(4)---0-|


[Riff 1]

e|---------------------------------------------------------------------------|
B|---------------------------------------------------------------------------|
G|---------------------------------------------------------------------------|
D|-11--11--11--9---9---7~---7/12--11--11--11--14--14--9~---9/12--11--11--11--|
A|-9---9---9---7---7---5~---5/10--9---9---9---12--12--7~---7/10--9---9---9---|
E|---------------------------------------------------------------------------|

e|---------------------------------------------------------------------------|
B|---------------------------------------------------------------------------|
G|---------------------------------------------------------------------------|
D|9---9---7~--7/12--11--11--11--14--14--9~--9/12--11--11--11--9---9---7---7--|
A|7---7---5~--5/10--9---9---9---12--12--7~--7/10--9---9---9---7---7---5---5--|
E|---------------------------------------------------------------------------|
                                                           
e|---------------------------------0---0-----------0--------|
B|---------------------------------0---0-----------0--------|
G|---------------------------------4---4-----------4--------|
D|-7---7---6---6---4---4---4---4---2---2-----------2--------|
A|-5---5---4---4---2---2---2---2---0---0-----------0--------|
E|-----------------------------------------3b(4)-------3b(4)|


[Verse 1]

e|---------------------------------------------------------------------------|
B|---------------------------------------------------------------------------|
G|----------------3b(4)------------------------------------------------------|
D|----4b(5)---2-----------4b(6)---2---2-------------------2------------------|
A|----------------------------------------4b(5)---4b(5)----------------------|
E|0-----------------------------------------------------------3b(4)---0---0--|

e|---------------------------------------------------------------------------|
B|---------------------------------------------------------------------------|
G|-------------3b(4)-------------------9-----9-------------------------------|
D|-4b(5)---2-----------4b(6)---2---2---9h11--9---5---------------4b(5)---2---|
A|---------------------------------------------------7-----------------------|
E|-------------------------------------------------------0---0---------------|

e|-----------------------------------------------------------------------------|
B|-----------------------------------------------------------------------------|
G|3b(4)-------------------------------------------------------------------3b(4)|
D|--------4b(6)---2---2-------------------2-------------------4b(5)---2--------|
A|------------------------4b(5)---4b(5)----------------------------------------|
E|--------------------------------------------3b(4)---0---0--------------------|
                                                    
e|--------------------------------------------------|
B|--------------------------------------------------|
G|--------------------------------------------------|
D|-----4b(6)---2---2-------------------2------------|
A|---------------------4b(5)---4b(5)----------------|
E|-----------------------------------------3b(4)---0|


[Chorus]

(Guitar 2 play Riff 1)                                         x2
e|---------------------------------------------------------------|
B|---------10-------------9---7~-----------10------------14---9~-|
G|-----11-------------9-------7~-------11------------14--14---9~-|
D|-11-------------9-----------7~---11------------14-----------9~-|
A|---------------------------------------------------------------|
E|---------------------------------------------------------------|

e|---------------------------------------------------------------------------|
B|---------10-------9--------------------7-------5--------------------4------|
G|-----11---------------9------------7-------7-------6------------4-------4--|
D|-11----------11-----------9----7-----------------------6----4--------------|
A|---------------------------------------------------------------------------|
E|---------------------------------------------------------------------------|
                   
e|----------------|
B|---2------------|
G|-------2--------|
D|-----------2----|
A|----------------|
E|---------------0|


[Verse 2]

e|---------------------------------------------------------------------------|
B|---------------------------------------------------------------------------|
G|----------------3b(4)------------------------------------------------------|
D|----4b(5)---2-----------4b(6)---2---2-------------------2------------------|
A|----------------------------------------4b(5)---4b(5)----------------------|
E|0-----------------------------------------------------------3b(4)---0---0--|

e|---------------------------------------------------------------------------|
B|---------------------------------------------------------------------------|
G|-------------3b(4)-------------------9-----9-------------------------------|
D|-4b(5)---2-----------4b(6)---2---2---9h11--9---5---------------4b(5)---2---|
A|---------------------------------------------------7-----------------------|
E|-------------------------------------------------------0---0---------------|

e|-----------------------------------------------------------------------------|
B|-----------------------------------------------------------------------------|
G|3b(4)-------------------------------------------------------------------3b(4)|
D|--------4b(6)---2---2-------------------2-------------------4b(5)---2--------|
A|------------------------4b(5)---4b(5)----------------------------------------|
E|--------------------------------------------3b(4)---0---0--------------------|
                                                    
e|--------------------------------------------------|
B|--------------------------------------------------|
G|--------------------------------------------------|
D|-----4b(6)---2---2-------------------2------------|
A|---------------------4b(5)---4b(5)----------------|
E|-----------------------------------------3b(4)---0|


[Chorus]

(Guitar 2 play Riff 1)                                         x2
e|---------------------------------------------------------------|
B|---------10-------------9---7~-----------10------------14---9~-|
G|-----11-------------9-------7~-------11------------14--14---9~-|
D|-11-------------9-----------7~---11------------14-----------9~-|
A|---------------------------------------------------------------|
E|---------------------------------------------------------------|

e|---------------------------------------------------------------------------|
B|---------10-------9--------------------7-------5--------------------4------|
G|-----11---------------9------------7-------7-------6------------4-------4--|
D|-11----------11-----------9----7-----------------------6----4--------------|
A|---------------------------------------------------------------------------|
E|---------------------------------------------------------------------------|
                   
e|----------------|
B|---2------------|
G|-------2--------|
D|-----------2----|
A|----------------|
E|---------------0|


[Bridge] 
                                      x2
e|----9-------9---9------9-----------|
B|----7-------7---7------7------9\-4-|
G|----7-------7---7------7------9\-4-|
D|----7---9---7---7------7------9\-4-|
A|-----------------------------------|
E|0----------------------------------|


[Solo]

e|----------------------------------------------------------------------------|
B|----------------------------------------------------------------------------|
G|-------------9---11\4-------------------------------------------------------|
D|-------9h11-------------------------2--------7---9---9/11--9h11p9---7---9h11|
A|-9h11-------------------------2h4------7/9----------------------------------|
E|------------------------2h4-------------------------------------------------|

e|------------------------------------9--------------------------------------|
B|-----------9h10p9-------9---10--12------12--10--12--10--9------------------|
G|---9---11-----------11--------------------------------------11--9----------|
D|--------------------------------------------------------------------9---11-|
A|---------------------------------------------------------------------------|
E|---------------------------------------------------------------------------|

e|--------------------------------------------------------9------------------|
B|-------------------------------9h10p9-------9---10--12------12--9h10p9-----|
G|--9---11--11-----------9---11-----------11-------------------------------11|
D|---------------9---11------------------------------------------------------|
A|---------------------------------------------------------------------------|
E|---------------------------------------------------------------------------|

e|---------------------------------------------------------------------------|
B|--9------------------------------------------------------------------------|
G|------11p9-------11p9-------9-----------------------------------------9---9|
D|-------------11---------11-----11p9---7---9p7-------7-------7---9/11-------|
A|------------------------------------------------9-------9------------------|
E|---------------------------------------------------------------------------|

e|--------------------------------------------------------------------14---------|
B|----------------------------------------------------------------14------17b(19)|
G|---9---9---------9---9---9---9---------9---9---9---9---16b(18)-----------------|
D|-----------9h11------------------9h11------------------------------------------|
A|-------------------------------------------------------------------------------|
E|-------------------------------------------------------------------------------|

e|------17-------------------------------17-------------------17-------------|
B|----------17b(19)r17---17b(19)r17--14------17b(19)--17--14------17b(19)r17-|
G|---------------------------------------------------------------------------|
D|---------------------------------------------------------------------------|
A|---------------------------------------------------------------------------|
E|---------------------------------------------------------------------------|


[Verse]

e|---------------------------------------------------------------------------|
B|---------------------------------------------------------------------------|
G|----------------3b(4)------------------------------------------------------|
D|----4b(5)---2-----------4b(6)---2---2-------------------2------------------|
A|----------------------------------------4b(5)---4b(5)----------------------|
E|0-----------------------------------------------------------3b(4)---0---0--|

e|---------------------------------------------------------------------------|
B|---------------------------------------------------------------------------|
G|-------------3b(4)-------------------9-----9-------------------------------|
D|-4b(5)---2-----------4b(6)---2---2---9h11--9---5---------------4b(5)---2---|
A|---------------------------------------------------7-----------------------|
E|-------------------------------------------------------0---0---------------|

e|-----------------------------------------------------------------------------|
B|-----------------------------------------------------------------------------|
G|3b(4)-------------------------------------------------------------------3b(4)|
D|--------4b(6)---2---2-------------------2-------------------4b(5)---2--------|
A|------------------------4b(5)---4b(5)----------------------------------------|
E|--------------------------------------------3b(4)---0---0--------------------|
                                                    
e|--------------------------------------------------|
B|--------------------------------------------------|
G|--------------------------------------------------|
D|-----4b(6)---2---2-------------------2------------|
A|---------------------4b(5)---4b(5)----------------|
E|-----------------------------------------3b(4)---0|


[Chorus]

(Guitar 2 play Riff 1)                                         x2
e|---------------------------------------------------------------|
B|---------10-------------9---7~-----------10------------14---9~-|
G|-----11-------------9-------7~-------11------------14--14---9~-|
D|-11-------------9-----------7~---11------------14-----------9~-|
A|---------------------------------------------------------------|
E|---------------------------------------------------------------|

e|---------------------------------------------------------------------------|
B|---------10-------9--------------------7-------5--------------------4------|
G|-----11---------------9------------7-------7-------6------------4-------4--|
D|-11----------11-----------9----7-----------------------6----4--------------|
A|---------------------------------------------------------------------------|
E|---------------------------------------------------------------------------|
                   
e|----------------|
B|---2------------|
G|-------2--------|
D|-----------2----|
A|----------------|
E|---------------0|


[Outro]

e|-----17------------------------------------------|-------------------------|
B|-14------17b(19)r17--14--------------------------|-------------------------|
G|-------------------------16b(18)--16--14---------|-----------------3b(4)---|
D|------------------------------------------16--14~|-----4b(5)---2-----------|
A|-------------------------------------------------|-------------------------|
E|-------------------------------------------------|-0-----------------------| 

                                            x4
e|---------------------------------------------|
B|---------------------------------------------|
G|---------------------------------------------|
D|4b(6)---2---2-------------------2------------|
A|----------------4b(5)---4b(5)----------------|
E|------------------------------------3b(4)---0|



****************************

| /  slide up
| \  slide down
| h  hammer-on
| p  pull-off
| ~  vibrato
| +  harmonic
| x  Mute note

****************************
Suggest correction
comments
print report bad tab
2 comments total.
+3 reply
Scayzar 10 wrote on September 4 2009, 04:26 am

Best tab out here Thanks

0 reply
Happy Billy 10 wrote on July 4 2016, 03:19 am

Great job on the solo esp.

guest
You may want to rate the tab now too:
select rating
Please do not post tabs as comments. Select "correction" instead!