Oops, an error
Loading. Please wait.

The Rover Tab

version 5
version 5

Whole song

Interactive

11,389 views 57 this week
2 commentsread comments
1 2 3 4 5
excellent!
x 12
add to favorites
launch autoscroll
font size
0
reset
how to read this tab
guitar tuner
Tab Pro tools
  • play this tab
  • loop segment
  • change instrument
  • show fretboard
  • metronome
×
Best way to learn
"The Rover"
Autoscroll
slow
fast
+/-
esc
set tempo
stop
Contributor
Difficulty
intermediate
“The Rover,” Led Zeppelin
Physical Graffiti
1975

Intro
E ---------------------------------------------------------------------|
B ---------------------------------------------------------------------|
G ----------------------------11p9-9-9-11p9-9--------------------------|
D ----------------------------9----9-9-9----9--------------------------|
A -7-7-----------------5h7---------------------7-7-----------------5h7-|
E -0-0----3-3-5-5-3-5-3------------------------0-0----3-3-5-5-3-5-3----|

E -----------------|
B -----------------|
G ---11p9-9--------|
D ---9--9-9--5-----|
A -------------7p5-|
E -----------------|

Main Riff                        Main Riff (Alternate)
E -----------------------------| E -------------------0-0--------|
B -----------------------------| B -------------------2-0--------|
G ---------4-------------------| G ---------4--------------------|
D ----4b-2---4b-2--2-------2---| D ----4b-2---4b-2--2-----4b-2---|
A -------------------4b-4b-----| A ------------------------------|
E -0-------------------------3-| E -0--------------------------0-|

Chorus (Guitar A)
E --------------------------------------------------------------------|
B --------------------------------------------------------------------|
G --------------------------------------------------------------------|
D -11--11-11-9-9--7--7/12-11--11-11-14-14--9--9/12-11--11-11-9-9--7---|
A -9---9--9--7-7--5--5/10-9---9--9--12-12--7--7/10-9---9--9--7-7--5---|
E --------------------------------------------------------------------|

E -------------------------------------------------------------------|
B -------------------------------------------------------------------|
G -------------------------------------------------------------------|
D -7/12-11--11-11-14-14--9--9/12-11--11-11-9-9--7--7-7-6-6--4--4-4-2-|
A -5/10-9---9--9--12-12--7--7/10-9---9--9--7-7--5--5-5-4-4--2--2-2-0-|
E -------------------------------------------------------------------|

Chorus (Guitar B)
E --------------------------------------------------------------------|
B -----10-----9---7-----------10-----14----12---------10-----9---7----|
G ----11-----9----7----------11-----14-----13--------11-----9----7----|
D ---11-----9-----7---------11-----14------14-------11-----9-----7----|
A --------------------------------------------------------------------|
E --------------------------------------------------------------------|

E -------------------------------------------------------------------|
B --------10------14----12-----------10---9------7--5------4----2----|
G -------11------14-----13----------11-11--9----7-7--6----4-4--2-2---|
D ------11------14------14---------11---------7---------4-----2------|
A -------------------------------------------------------------------|
E -------------------------------------------------------------------|

Bridge                    Bridge (Alternate)
E -9--9-9--9------------| E -9--9-9--9------------------|
B -7--7-7--7--9-9---\---| B -7--7-7--7--9-9-------------|
G -7--7-7--7--9-9---\---| G -7--7-7--7--9-9-----------9-|
D -7--7-7--7--9-9---\---| D -7--7-7--7--9-9-------9h11--|
A --------------------2-| A ------------------9h11------|
E --------------------0-| E ----------------------------|

Solo
E -------------------------------------------------------------|
B -------------------------------------------------------------|
G ---------9--11--------------2-4-(4)/6--4h6p4------------9-11-|
D -----9h11-------------2-2h4------------------7---(7)/11------|
A -9h11--------------2h4---------------------------------------|
E ----------------2h4------------------------------------------|

E -------------------9----------------------------------|
B -9h10p9----9-10-12---12-10b12---9---------------------|
G --------11------------------------11-9--------9h11-11-|
D ------------------------------------------9h11--------|
A ------------------------------------------------------|
E ------------------------------------------------------|

E ----------------------------9--------------------------------|
B ----------9h10p9----9-10-12---12-9h10p9----9-----------------|
G -----9h11--------12---------------------11---11p9--11p9----9-|
D -9h11---------------------------------------------------11---|
A -------------------------------------------------------------|
E -------------------------------------------------------------|

E ---------------------------------------------------------|
B ---------------------------------------------------------|
G -------------------------9-9-9-9-----9-9-9-9-----9-9-9-9-|
D -11\9-7-9-7--7---7---9/11--------9h11--------9h11--------|
A ---------------9-----------------------------------------|
E ---------------------------------------------------------|

E -------------17-----------17-------17------17----------------------|
B ----14-17b-17b--17b-17br14---17br14--17br14--17br14----------------|
G -16b------------------------------------------------16b-16-14------|
D -------------------------------------------------------------16-14-|
A -------------------------------------------------------------------|
E -------------------------------------------------------------------|

*SYMBOLS*
h - hammer on
p - pull off
b - bend (one whole step)
/ - slide up
\ - slide down

http://www.youtube.com/user/zeppelinfan444
comments
print report bad tab
2 comments total.
0 reply
Zonaljaek wrote on June 29 2014, 08:26 pm

How did this get just a 3 star rating? It's the only one that's right. Good job!

0 reply
ayreon77 wrote on January 23 2016, 09:57 am

because most people on here are shit at playing guitar, and if they can;t get it themselves they rate it bad, looks good to me

I want to post or [tab]
guest
You may want to rate the tab now too:
select rating
Please do not post tabs as comments. Select "correction" instead!