Oops, an error
Loading. Please wait.

The Rover Tab

version 5
version 5

Whole song

Interactive

14,173 views 75 this week
1 commentread comment
1 2 3 4 5
x 13
add to favorites
launch autoscroll
font size
0
reset
how to read this tab
guitar tuner
backing track
0:00
0:00
×
Best way to learn
"The Rover"
Autoscroll
slow
fast
+/-
esc
set tempo
stop
Author
Difficulty
  follow
intermediate
[Intro]
e|---------------------------------------------------------------------|
B|---------------------------------------------------------------------|
G|----------------------------11p9-9-9-11p9-9--------------------------|
D|----------------------------9----9-9-9----9--------------------------|
A|-7-7-----------------5h7---------------------7-7-----------------5h7-|
E|-0-0----3-3-5-5-3-5-3------------------------0-0----3-3-5-5-3-5-3----|

e|-----------------|
B|-----------------|
G|---11p9-9--------|
D|---9--9-9--5-----|
A|-------------7p5-|
E|-----------------|

[Main Riff]                     [Main Riff] (Alternate)
e|-----------------------------|-------------------0-0--------|
B|-----------------------------|-------------------2-0--------|
G|---------4-------------------|---------4--------------------|
D|----4b-2---4b-2--2-------2---|----4b-2---4b-2--2-----4b-2---|
A|-------------------4b-4b-----|------------------------------|
E|-0-------------------------3-|-0--------------------------0-|

[Chorus] (Guitar A)
e|--------------------------------------------------------------------|
B|--------------------------------------------------------------------|
G|--------------------------------------------------------------------|
D|-11--11-11-9-9--7--7/12-11--11-11-14-14--9--9/12-11--11-11-9-9--7---|
A|-9---9--9--7-7--5--5/10-9---9--9--12-12--7--7/10-9---9--9--7-7--5---|
E|--------------------------------------------------------------------|

e|-------------------------------------------------------------------|
B|-------------------------------------------------------------------|
G|-------------------------------------------------------------------|
D|-7/12-11--11-11-14-14--9--9/12-11--11-11-9-9--7--7-7-6-6--4--4-4-2-|
A|-5/10-9---9--9--12-12--7--7/10-9---9--9--7-7--5--5-5-4-4--2--2-2-0-|
E|-------------------------------------------------------------------|

[Chorus] (Guitar B)
e|--------------------------------------------------------------------|
B|-----10-----9---7-----------10-----14----12---------10-----9---7----|
G|----11-----9----7----------11-----14-----13--------11-----9----7----|
D|---11-----9-----7---------11-----14------14-------11-----9-----7----|
A|--------------------------------------------------------------------|
E|--------------------------------------------------------------------|

e|-------------------------------------------------------------------|
B|--------10------14----12-----------10---9------7--5------4----2----|
G|-------11------14-----13----------11-11--9----7-7--6----4-4--2-2---|
D|------11------14------14---------11---------7---------4-----2------|
A|-------------------------------------------------------------------|
E|-------------------------------------------------------------------|

[Bridge]                 [Bridge] (Alternate)
e|-9--9-9--9------------|-9--9-9--9------------------|
B|-7--7-7--7--9-9---\---|-7--7-7--7--9-9-------------|
G|-7--7-7--7--9-9---\---|-7--7-7--7--9-9-----------9-|
D|-7--7-7--7--9-9---\---|-7--7-7--7--9-9-------9h11--|
A|--------------------2-|------------------9h11------|
E|--------------------0-|----------------------------|

[Solo]
e|-------------------------------------------------------------|
B|-------------------------------------------------------------|
G|---------9--11--------------2-4-(4)/6--4h6p4------------9-11-|
D|-----9h11-------------2-2h4------------------7---(7)/11------|
A|-9h11--------------2h4---------------------------------------|
E|----------------2h4------------------------------------------|

e|-------------------9----------------------------------|
B|-9h10p9----9-10-12---12-10b12---9---------------------|
G|--------11------------------------11-9--------9h11-11-|
D|------------------------------------------9h11--------|
A|------------------------------------------------------|
E|------------------------------------------------------|

e|----------------------------9--------------------------------|
B|----------9h10p9----9-10-12---12-9h10p9----9-----------------|
G|-----9h11--------12---------------------11---11p9--11p9----9-|
D|-9h11---------------------------------------------------11---|
A|-------------------------------------------------------------|
E|-------------------------------------------------------------|

e|---------------------------------------------------------|
B|---------------------------------------------------------|
G|-------------------------9-9-9-9-----9-9-9-9-----9-9-9-9-|
D|-11\9-7-9-7--7---7---9/11--------9h11--------9h11--------|
A|---------------9-----------------------------------------|
E|---------------------------------------------------------|

e|-------------17-----------17-------17------17----------------------|
B|----14-17b-17b--17b-17br14---17br14--17br14--17br14----------------|
G|-16b------------------------------------------------16b-16-14------|
D|-------------------------------------------------------------16-14-|
A|-------------------------------------------------------------------|
E|-------------------------------------------------------------------|



************************************

| p   Pull-off
| h   Hammer-on
| b   Bend
| /   Slide up
| \   Slide down
| br  Bend release
| (   
| )/  

************************************
Suggest correction
comments
print report bad tab
1 comment total.
0 reply
Zonaljaek 10 Jun 29, 2014 04:26 PM

How did this get just a 3 star rating? It's the only one that's right. Good job!

guest
You may want to rate the tab now too:
select rating
Wanna post a correction for this tab? Suggest correction