Oops, an error
Loading. Please wait.

The Song Remains The Same Bass Tab

version 1
version 1

Whole song

Interactive

1,979 views 3 this week
4 commentsread comments
1 2 3 4 5
x 3
add to favorites
launch autoscroll
font size
0
reset
guitar tuner
Autoscroll
slow
fast
+/-
esc
set tempo
stop
Help us to improve Ultimate-Guitar.com Take our survey!
×
Difficulty
advanced
Led Zeppelin – The Song Remains The Same
Houses of the Holy
Tuning : E A D G 	Time Signature: 4/4
Each block is a 4 beat measure so it shall be best if you play along with the cd.
Once again this tabs' credit shall go to the original tabber, i just modified it
so it wasnt 18 *** pages long when i printed this bad boy out. Enjoy this 1 its a great
song with great bass from a great bass player (JPJ).
|-7/----5---------|-7/----4-------|-7/----4-------|----7-----------|
|-----------------|---------------|---------------|----------------|
|-----------------|---------------|---------------|----------------|
|-----------------|---------------|---------------|----------------|

|-------------7---|-----------7---|-----------2---|------------2---|
|-----------------|---------------|------------2--|----------------|
|-5-55—-5-5-5---5-|-5--5--55------|-0-----------0-|--------------0-|
|-----------------|---------------|---------------|----------------|

|-----------------|---------------|------------2--|----------2-----|
|-----------------|---------------|-------------2-|----------------|
|-0--0----0---0-0-|-0------0--0-0-|-0--00---0-----|-0--00--0-----0-|
|-----------------|---------------|---------------|----------------|

|----2--------2---|---------------|---------------|-2-1-22---0-22--|
|-----------------|---------------|-0--00----0--0-|---------------0|
|--0-------0---0--|-0-00-----0-00-|---------------|----------------|
|-----------------|---------------|---------------|----------------|

|--------------7--|-7--77---------|---------------|-2--22----0-22--|
|------------7----|---------5--7--|-0--00----0--0-|---------------0|
|-5--55---5-------|---------------|---------------|----------------|
|-----------------|---------------|---------------|----------------|

|--------------7-7|-7—-77---------|--------7-9-10-|12—-14/-----12--|
|-------------7---|----------5--7-|---------------|-------15-15--12|
|-5--55-----5-----|---------------|-----0-0-------|----------------|
|-----------------|---------------|10-------------|----------------|

|--9/-------------|-4-------------|-------------2-||--------------2-|
|12--13-10—9/-----|---5----3--2---|---------------|*----------------|
|------------11-12|-------------5-|-0--00----0---0|*0--00-------0--0|
|-----------------|---------------|---------------||----------------|
                                 >1*
|---------------2-|---------------|---------------|----------------|               
|-----------------|---------------|---------------|----------------|               
|-0--00-------0--0|-0--00--0------|-0--00--0------|-0--00----------|               
|-----------------|----------3-33-|----------3--3-|-----------3--3-|

|-----------------|---------------|---------------|-2--22----0-2---|
|-----------------|---------------|-0--00----0--0-|--------------0-|
|-0--00-----------|-0--00-----0-0-|---------------|----------------|
|------------3--3-|---------------|---------------|----------------|

|-----7--------7--|---------0--22-|-7---------7---|-----2-----0-22-|
|-----------7---7-|-0--00---------|----7--------7-|-0--0-----------|
|-5--5-----------5|---------------|-----5---5-----|----------------|
|-----------------|---------------|---------------|----------------|

|--------------77-|-7----------7--|----------0--22|-10/---------------|
|-----------7-----|---7-----------|-0--00---------|-----8-7-----------|
|-5--55-----------|-----5----5---5|---------------|-------------------|
|-----------------|---------------|---------------|--------10--10—1010|

|-10--------------|-10/-----------|-10------------|-10-------------|
|---10-7--------7-|----8-7-------7|---9-7--------7|---8-7---------7|
|-----------------|---------------|---------------|----------------|
|--------10--10---|--------10--10-|--------10--10-|-------10—--10--|

|-10--------------|-2-------------|---------------|----------------|
|---9--7--------7-|---0-------0-0-|-0-0--000---0--|-0--------------|
|-----------------|---------------|---------------|----------------|
|--------10---10--|---------------|---------------|----------------|

|-----------------|---------------|---------0-0--0|-0--------------|
|-----------------|---------------|---0-2---------|----------------|
|-3/-0-----3------|-----------0-1-|-2-------------|--------------3-|
|---------------3-|---------------|---------------|----------------|

|-----------------|---------------|----------0--0-|-0--------------|
|-----------------|---------------|---0-----2-----|----------------|
|-----3-----------|------------0--|-2-------------|----------------|
|--------------3--|---------------|---------------|----------------|

|-----------------|---------------|---------------|----------------|
|-----------------|---------------|---------1--2--|--3--1---3-2----|
|-3-----3---------|---------1--2--|--3--4---------|-------------3--|
|--------------1--|--2--3---------|---------------|---------------1|

|-----------------|---------------|---------------|----------------|
|-----------------|---------------|---------------|----------------|
|-------3---------|---------------|---*No-Bass*---|----------------|
|-----------1---3-|---------------|---------------|----------------|

|-----------------|---------------|------0--------|----------------|
|-----------------|---------------|--0-2-----2-0--|----------------|
|-2-3-----2-3-----|-------0---2---|-------------2-|---*No-Bass*----|
|----------------3|---------------|--------------3|----------------|

|-----------------|---------------|-------------0-|-0------0---0---|
|-----------------|---------------|-----0-----3---|----------------|
|-3------3--------|--------0--2---|--4------------|----------------|
|-----------------|-3-------------|---------------|----------------|

|-----------------|---------------|---------------|----------------|
|-------------3-4-|---2---1-------|---------------|-------------3--|
|-3------3--------|----------4--2-|---1-----------|-------0--3-----|
|-----------------|---------------|------4---2---1|----------------|

|-----------------|---------------|---------------|------------2--||
|-----------------|---------------|---------------|---------------*|
|---3--0----------|---------------|---------------|-0--00---0---0-*|
|---------1-----3-|--------3---3--|-3---33---3--3-|---------------||
>2*
|-----------------|-7---77--------|---------7-9-10|--4-------------|
|-----------------|----------5--7-|---------------|----5----3-2----|
|-0---00---0------|---------------|------0-0------|-------------5--|
|------------3--3-|---------------|-10------------|----------------|

|-------------2---|--2------------|10----------10-|-----9--------7-|
|-----------------|-----0---0-00--|--9-----------7|------------7--7|
|-0---00----0--0--|---------------|---------------|----------------|
|-----------------|---------------|----8-10-10----|--10---10-10----|

|-----------------|-2-2-2-2-2-2-2-|---------------|----------------|
|-0-0-0-0-0-0-0-0-|---0-0-0-0-0-0-|-0—0-0-000-0-00|-0--000--0-0-0-0|
|-----------------|---------------|---------------|----------------|
|-----------------|---------------|---------------|----------------|

|-----------------|---------------|------------2--|------------9-9-|
|-----------------|------------02-|------2--------|--------7-------|
|-----------------|--------------2|-0-------------|--7---10--------|
|-3-3-3-3-3-3-3-3-|-3-3-3-3-3-3---|---------------|----------------|

|-----------------|---------------|-----------2---|----------------|
|-----------------|------------2--|-----2---------|--2-------------|
|-----------------|-------------20|---------------|------0---0--2--|
|-3--------3-3-3--|-3--3--3--33---|---------------|--------3-------|

|------------45---|--12/11--------|----------0----|--12/-----------|
|------5----------|--------10-----|---------------|-----12---10----|
|-3---------------|----------10-10|----3--3-------|------------10-3|
|-----------------|---------------|---------------|----------------|

|-----------------|---------------|---------------|----------------|
|-----------------|---------------|---------------|----------------|
|-3--3--2--2--2-0-|--0-0--0-------|---------------|----*No-Bass*---|
|-----------------|--------3-3-2-0|-0-------------|----------------|

|-9--9------------|----9----------|----9----------|----9-----------|
|------7----------|-7---7---------|-7---7---------|-7---7----0-00--|
|-----------0-00--|---------0-00--|---------0-00--|----------------|
|-----------------|---------------|---------------|----------------|

|-9---99----------|----99---------|-9--99---------|-9--99----------|
|-----------------|-7-------------|---------------|----------------|
|-----------0-00--|---------------|---------------|----------------|
|-----------------|---------3--3--|---------3--3--|----------3--8--|

|-----------------|-7---77--------|--4------------|-------------2--|
|-0---00------0-0-|-----------5-7-|---5----3-2----|----------------|
|-----------------|---------------|------------5--|-0--00-----0-—0-|
|-----------------|---------------|---------------|----------------|

|-9---------------|----99---------|----99---------|----99-9--------|
|----77--------7--|-7----------7--|-7---------7---|-7--------------|
|---------00----0-|----------0---0|---------0-----|----------------|
|-----------------|---------------|-------------3-|-----------3--3-|

|-----99----------|-----99--------|-----99--------|--------222--2--|
|-7---------------|-7-------------|-7-------------|-0--00-----00-0-|
|-----------------|---------------|----------0----|----------------|
|------------3--3-|----------3--3-|-----------689-|----------------|

|-0--22----0---0--|------------7--|--------22-00-7|-7--------------|
|----------------0|----------7----|-0-00----------|-----------5-7--|
|-----------------|-5--55-------5-|---------------|---55----5------|
|-----------------|---------------|---------------|----------------|

|-7---775---------|-----------7---|-------------2-|---2------------|
|----------5--77--|---------7-----|-0--00-----0---|------0-----0-0-|
|----------------5|-5--55------5--|---------------|----------------|
|-----------------|---------------|---------------|----------------|

|-----------------|---------------|
|-0--0----0-0-0--0|-0-------------| 
|-----------------|---------------|  
|-----------------|---------------|
Suggest correction
Give kudos to tab author, rate the tab!
1 2 3 4 5
comments
print report bad tab
4 comments total. Showing first comments.
0 reply
bassman2013 10 Nov 29, 2005 11:12 AM

its not accurate at all put more effort if ur gonna put in a tab

0 reply
Punx310 51 Oct 04, 2006 09:07 PM

its totally wrong

0 reply
orange_juice 61 Nov 23, 2006 05:11 PM

you messed up my favourite song! YOU SUCK!

guest
You may want to rate the tab now too:
select rating
Wanna post a correction for this tab? Suggest correction