Oops, an error
Loading. Please wait.

Trampled Under Foot Tab

version 2
version 2

Whole song

Interactive

66,713 views 120 this week
5 commentsread comments
1 2 3 4 5
excellent!
x 21
add to favorites
launch autoscroll
font size
0
reset
how to read this tab
guitar tuner
Autoscroll
slow
fast
+/-
esc
set tempo
stop
Help us to improve Ultimate-Guitar.com Take our survey!
×
Author
Difficulty
intermediate
TRAMPLED UNDERFOOT
                           As recorded by Led Zeppelin
                     (From the 1975 Album PHYSICAL GRAFFITI)

Words and Music by Jimmy Page, Robert Plant & John Paul Jones
Thanks to GibLPCust for the power tab version of this song, but here's a better text version.
           A                   Bb
      x x x 2 2 x          x x x 3 3 x

Gtr I (E A D G B E) - 'Guitar 1'
Gtr II (E A D G B E) - 'Guitar 2 (with wah and reverb)'
Gtr III (E A D G B E) - 'Electric Piano (arranged for guitar)'
Gtr IV (E A D G B E) - 'Guitar 4 (with wah and slide)'

[Intro]

(Clavinet 1st Verse)
  Moderate Rock Q=110
                 N.C.(Gm)
 4/4
  Gtr I
  Wx2            E e e e S S S S S S E   E e e e S S S S S S E  3x
e|------------||------------------------|------------------------||
B|------------||o---3-2-3-2-3-----------|---3-2-3-2-3-----------o||
G|------------||----3-2-3-2-3-----------|---3-2-3-2-3------------||
D|------------||--------------5-3---3-5-|-------------5-3---3-5--||
A|------------||o-----------------5-----|-----------------5-----o||
E|------------||------------------------|------------------------||


   (Bb)            (C)             (Gm)
   Gtrs I, II
   S E S +S  S S S S E S +S  S E   E  e  q   S  S  S  S  S  S  E
e|-----6-(6)-6---6-----8-(8)-8---|---10-10-----------------------|
B|-------------------------------|---10-11--10-11----------------|
G|-5s7---------7---7s9---------9-|----------------12-10----10-12-|
D|-------------------------------|----------------------12-------|
A|-------------------------------|-------------------------------|
E|-------------------------------|-------------------------------|


   E  e  q   S  S  S  S  S  S  E
e|---10-10-------------------------||
B|---10-11--10-11------------------||
G|----------------12-10----10-12\--||
D|----------------------12---------||
A|---------------------------------||
E|---------------------------------||


[2nd & 3rd Verses]

     (Gm)
     Gtr I
     E e q  S S S S S S E   E e q  S S S S S S E   E e q  S S S S S S E
e||-----------------------|----------------------|----------------------|
B||o---2-3--2-3-----------|---2-3--2-3-----------|---2-3--2-3-----------|
G||----2-3--2-3-----------|---2-3--2-3-----------|---2-3--2-3-----------|
D||-------------5-3---3-5-|------------5-3---3-5-|------------5-3---3-5-|
A||o----------------5-----|----------------5-----|----------------5-----|
E||-----------------------|----------------------|----------------------|


   E e q  S S S S S S E   E e q  S S S S S S E   E e q  S S S S S S E
e|----------------------|----------------------|-----------------------|
B|---2-3--2-3-----------|---2-3--2-3-----------|---2-3--2-3------------|
G|---2-3--2-3-----------|---2-3--2-3-----------|---2-3--2-3------------|
D|------------5-3---3-5-|------------5-3---3-5-|------------5-3---3-5--|
A|----------------5-----|----------------5-----|----------------5------|
E|----------------------|----------------------|-----------------------|


                                  1.
   (Bb)            (C)             (Gm)
   Gtrs I, II
   S E S +S  S S S S E S +S  S E   E  e  q   S  S  S  S  S  S  E
e|-----6-(6)-6---6-----8-(8)-8---|---10-10-----------------------|
B|-------------------------------|---10-11--10-11----------------|
G|-5s7---------7---7s9---------9-|----------------12-10----10-12-|
D|-------------------------------|----------------------12-------|
A|-------------------------------|-------------------------------|
E|-------------------------------|-------------------------------|


   E  e  q   S  S  S  S  S  S  E
e|---10-10--------------------------||
B|---10-11--10-11------------------o||
G|----------------12-10----10-12\---||
D|----------------------12----------||
A|---------------------------------o||
E|----------------------------------||


   2.
   (Eb)                  (F)
   Gtrs I, II
   S  E  S  +S   S  S  S  S  E  S  +S   S  e
e|------11-(11)-11----11-------13-(13)-13----|
B|-------------------------------------------|
G|-9s12------------12----12s14------------14-|
D|-------------------------------------------|
A|-------------------------------------------|
E|-------------------------------------------|


   (Gm)
   E  e  q   S  S  S  S  S  S  E   E  e  q   S  S  S  S  S  S  E
e|---10-10-----------------------|---10-10-------------------------||
B|---10-11--10-11----------------|---10-11--10-11------------------||
G|----------------12-10----10-12-|----------------12-10----10-12\--||
D|----------------------12-------|----------------------12---------||
A|-------------------------------|---------------------------------||
E|-------------------------------|---------------------------------||


[4th Verse]

   (Gm)
   Gtr I
   E e q  S S S S S   S  E
e|-------------------------|
B|---2-3--2-3--------------|
G|---2-3--2-3--------------|
D|------------5-3-----3--5-|
A|----------------5--------|
E|-------------------------|
|
 | Gtr II
 |                    ~~~~~~
 | H      Q       T T E.
e|----------------8p6------|
B|--------------------8----|
G|-------------------------|
D|-------------------------|
A|-------------------------|
E|-------------------------|


    E   e q        S  S S S S S      E      E e q  S S S S S S E
e|----------------------------------------|--------------------------|
B|------2-3--------2--3-------------------|---2-3--2-3---------------|
G|------2-3--------2--3-------------------|---2-3--2-3---------------|
D|----------------------5-3---3------5----|------------5-3---3-5-----|
A|--------------------------5-------------|----------------5---------|
E|----------------------------------------|--------------------------|
|
 |~~~~~~                                    ~
 | +Q     E E     +Q.            a  +S  S   Q   Q  Q       E   S S
e|----------8b10==(8)-----------(8)r(8)p6-|--------------------5h6---|
B|-(8)\-----------------------------------|-8------------------------|
G|----------------------------------------|--------------------------|
D|----------------------------------------|--------------------------|
A|----------------------------------------|--------------------------|
E|----------------------------------------|--------------------------|


   E   e   q       S S S S S S E     E   e  q   S S S S S S     E
e|---------------------------------|---------------------------------|
B|-----2---3-------2-3-------------|-----2--3---2-3------------------|
G|-----2---3-------2-3-------------|-----2--3---2-3------------------|
D|---------------------5-3---3-5---|----------------5-3---3-----5----|
A|-------------------------5-------|--------------------5------------|
E|---------------------------------|---------------------------------|
|
 | S S S S S S S S S S S S S S S S   Q     +Q   Q       E   a a E
e|-5-6-5-6-5-6-5-6-5-6-5-6-5-6-6-6-|-6b8---(6)------------------6b8==|
B|---------------------------------|--------------------------x------|
G|---------------------------------|------------------------x--------|
D|---------------------------------|---------------------------------|
A|---------------------------------|---------------------------------|
E|---------------------------------|---------------------------------|


    E  e      q       S  S S S  S   S E
e|----------------------------------------|
B|-----2------3-------2--3----------------|
G|-----2------3-------2--3----------------|
D|-------------------------5-3------3-5---|
A|------------------------------5---------|
E|----------------------------------------|
|
 |                    ~~~~~~~~~~~~~~
 | +Q     a  +E  S S +Q        +Q
e|-(6)---(6)r(6)--------------------------|
B|---------------8-8-(8)-------(8)\-------|
G|----------------------------------------|
D|----------------------------------------|
A|----------------------------------------|
E|----------------------------------------|


   (Bb)            (C)
   Gtrs I, II
   S E S +S  S S S S E S +S  S E   E  E  q   S  S  S  S  S  S  E
e|-----6-(6)-6---6-----8-(8)-8---|---10-10-----------------------|
B|-------------------------------|---10-11--10-11----------------|
G|-5s7---------7---7s9---------9-|----------------12-10----10-12-|
D|-------------------------------|----------------------12-------|
A|-------------------------------|-------------------------------|
E|-------------------------------|-------------------------------|


   E  E  q   S  S  S  S  S  S  E
e|---10-10---------------------------||
B|---10-11--10-11--------------------||
G|----------------12-10----10-12\----||
D|----------------------12-----------||
A|-----------------------------------||
E|-----------------------------------||


[5th Verse]

   (Gm)
   Gtr I
   E e q  S S S S S S E    E   e q  S S S S S S E    E  e q  S S S S S S E
e|----------------------|-------------------------|--------------------------|
B|---2-3--2-3-----------|------2-3--2-3-----------|-----2-3--2-3-------------|
G|---2-3--2-3-----------|------2-3--2-3-----------|-----2-3--2-3-------------|
D|------------5-3---3-5-|---------------5-3---3-5-|--------------5-3---3-5---|
A|----------------5-----|-------------------5-----|------------------5-------|
E|----------------------|-------------------------|--------------------------|
|
 | Gtr II
 |                    ~~~~~~~~~                 ~~~~~~~~
 | H      E   S S S S E   +Q     Q  E   S S S S E   +E  E Q  Q       E   S S
e|------------6-5-6-5---|---------------6-5-6-5---|--------------------------|
B|--------------------8-|-(8)\------------------8-|-(8)------------------6p3-|
G|----------------------|-------------------------|--------------------------|
D|----------------------|-------------------------|--------------------------|
A|----------------------|-------------------------|--------------------------|
E|----------------------|-------------------------|--------------------------|


   E e   q       S S S S S S E
e|-------------------------------|
B|---2---3-------2-3-------------|
G|---2---3-------2-3-------------|
D|-------------------5-3---3-5---|
A|-----------------------5-------|
E|-------------------------------|
|
 | E S S S S S S S S S S S S S S
e|-------------------------------|
B|-6p3---------------------------|
G|-----3s2-3-2---------------3h5-|
D|-------------5p3-5p3-----5-----|
A|---------------------5---------|
E|-------------------------------|


   E e q   S S S S S S E   E e q  S S S S S S E
e|-----------------------|------------------------|
B|---2-3---2-3-----------|---2-3--2-3-------------|
G|---2-3---2-3-----------|---2-3--2-3-------------|
D|-------------5-3---3-5-|------------5-3---3-5---|
A|-----------------5-----|----------------5-------|
E|-----------------------|------------------------|
|
 | E E E E H               W
e|-----------------------|------------------------|
B|-----------------------|------------------------|
G|---5-7-----------------|------------------------|
D|-8---------------------|------------------------|
A|-----------------------|------------------------|
E|-----------------------|------------------------|


   (Bb)            (C)             (Gm)
   Gtrs I, II
   S E S +S  S S S S E S +S  S E   E  E  q   S  S  S  S  S  S  E
e|-----6-(6)-6---6-----8-(8)-8---|---10-10-----------------------|
B|-------------------------------|---10-11--10-11----------------|
G|-5s7---------7---7s9---------9-|----------------12-10----10-12-|
D|-------------------------------|----------------------12-------|
A|-------------------------------|-------------------------------|
E|-------------------------------|-------------------------------|


   E  E  q   S  S  S  S  S  S  E
e|---10-10-------------------------||
B|---10-11--10-11------------------||
G|----------------12-10----10-12\--||
D|----------------------12---------||
A|---------------------------------||
E|---------------------------------||


[6th Verse]

   (Gm)
   Gtr I
   E e q         S  S S S      S  S E
e|------------------------------------|
B|---2-3---------2--3-----------------|
G|---2-3---------2--3-----------------|
D|--------------------5-3---------3-5-|
A|-----------------------------5------|
E|------------------------------------|
|
 | Gtr II
 |                                  ~~~
 | Q   E. S     +Q         a  +S  S E
e|--------8b10==(8)-------(8)r(8)p6---|
B|----------------------------------8-|
G|------------------------------------|
D|------------------------------------|
A|------------------------------------|
E|------------------------------------|


    E   e q  S S S S S S E    E  e q  S S S S S S E
e|-------------------------|---------------------------|
B|------2-3--2-3-----------|-----2-3--2-3--------------|
G|------2-3--2-3-----------|-----2-3--2-3--------------|
D|---------------5-3---3-5-|--------------5-3---3-5----|
A|-------------------5-----|------------------5--------|
E|-------------------------|---------------------------|
|
 |~~~~~~                 ~~~~~~~~
 | +e   E Q  S S S S S S E   +Q    Q  Q       E   S S
e|-------------------------|----------------------3p0--|
B|-(8)\------8-6-8-6-6-6-8-|-(8)-----------------------|
G|-------------------------|---------------------------|
D|-------------------------|---------------------------|
A|-------------------------|---------------------------|
E|-------------------------|---------------------------|


   E   e   q     S S S S S S E
e|-------------------------------|
B|-----2---3-----2-3-------------|
G|-----2---3-----2-3-------------|
D|-------------------5-3---3-5---|
A|-----------------------5-------|
E|-------------------------------|
|
 | S S S S S S e S S S S S S S S
e|-3p0h3p0-3p0-------------------|
B|-------------------------------|
G|-------------5-3h5-6-5-6-5-3-3-|
D|-------------------------------|
A|-------------------------------|
E|-------------------------------|


   E e q  S S S S S S E   E e q  S S S S S S E
e|----------------------|------------------------|
B|---2-3--2-3-----------|---2-3--2-3-------------|
G|---2-3--2-3-----------|---2-3--2-3-------------|
D|------------5-3---3-5-|------------5-3---3-5---|
A|----------------5-----|----------------5-------|
E|----------------------|------------------------|
|
 | ~
 | Q   Q  H               W
e|----------------------|------------------------|
B|----------------------|------------------------|
G|----------------------|------------------------|
D|-5--------------------|------------------------|
A|----------------------|------------------------|
E|----------------------|------------------------|


   (Bb)            (C)              (Eb)                  (F)
   Gtrs I, II
   S E S +S  S S S S E S +S  S E    S  E  S  +S   S  S  S  S  E  S  +S   S  e
e|-----6-(6)-6---6-----8-(8)-8----|------11-(11)-11----11-------13-(13)-13----|
B|--------------------------------|-------------------------------------------|
G|-5s7---------7---7s9---------9\-|-9s12------------12----12s14------------14-|
D|--------------------------------|-------------------------------------------|
A|--------------------------------|-------------------------------------------|
E|--------------------------------|-------------------------------------------|


   (Gm)
   E  E  q   S  S  S  S  S  S  E   E  E  q   S  S  S  S  S  S  E
e|---10-10-----------------------|---10-10------------------------||
B|---10-11--10-11----------------|---10-11--10-11-----------------||
G|----------------12-10----10-12-|----------------12-10----10-12\-||
D|----------------------12-------|----------------------12--------||
A|-------------------------------|--------------------------------||
E|-------------------------------|--------------------------------||


   G5                 C/G               Dm/A                C/G
   Gtrs I, II
     W                              +W
e|--------------------------------|-------------------------------------|
B|---3----------------------------|-(3)---------------------------------|
G|---0----------------------------|-(0)---------------------------------|
D|---0----------------------------|-(0)---------------------------------|
A|--------------------------------|-------------------------------------|
E|---3----------------------------|-(3)---------------------------------|
|
 | Gtr III
 |   Q   E  S  S  +S   S  E  E  E    S   E  S  E  S  S  +S   S  E  E  E
e|-/13--13--x-13-(13)-12-12-12-12-|--x--13--x-13--x-13-(13)-12-12-12-12-|
B|-/15--15--x-15-(15)-13-13-13-13-|--x--15--x-15--x-15-(15)-13-13-13-13-|
G|-/12--12-12-12-(12)-12-12-12-12-|-14--14-14-14-14-14-(14)-12-12-12-12-|
D|--------------------------------|-------------------------------------|
A|--------------------------------|-------------------------------------|
E|--------------------------------|-------------------------------------|


   G5 Dm/A                   C/G            Dm/A                C/G
    W                                   +W
e|------------------------------------|-------------------------------------||
B|--3---------------------------------|-(3)---------------------------------||
G|--0---------------------------------|-(0)---------------------------------||
D|--0---------------------------------|-(0)---------------------------------||
A|------------------------------------|-------------------------------------||
E|--3---------------------------------|-(3)---------------------------------||
|
 |  S  E  S  E  S  S  +S   S  E  E  E    S   E  S  E  S  S  +S   S  E  E  E
e|-13-13-13-13--x-13-(13)--x-12-12-12-|--x--13--x-13--x-13-(13)-12-12-12-12-||
B|-15-15-15-15--x-15-(15)--x-13-13-13-|--x--15--x-15--x-15-(15)-13-13-13-13-||
G|-14-14-12-14-14-14-(14)-14-12-12-12-|-14--14-14-14-14-14-(14)-12-12-12-12-||
D|------------------------------------|-------------------------------------||
A|------------------------------------|-------------------------------------||
E|------------------------------------|-------------------------------------||


[Guitar and Elec. Piano Solo]

     (Gm)        Dm/G
     Gtr I
      E  e        q                S   S  S  S  S  S  E
e||---------------------------------------------------------|
B||o-----2--------3----------------2---3--------------------|
G||------2--------3----------------2---3--------------------|
D||---------------------------------------5--3-----3--5-----|
A||o--------------------------------------------5-----------|
E||---------------------------------------------------------|
|
|   Gtr II
|       PM---------------------------------|
|    E  S  S     S   S  S     S   S   S  S  S  S  S  S   S
||---------------------------------------------------------|
||o-11-------------------------------------------------/13-|
||-----10-10----10--10-10----10--10--10-10-10-10-10-10-----|
||---------------------------------------------------------|
||o--------------------------------------------------------|
||---------------------------------------------------------|
|
 |   Gtr III
 |    Q        a  E.        a  S  +S   E     S  Q
e||-----------10s13--------10s13-(13)-----------------------|
B||o-------------15-----------15-(15)-11--------------------|
G||--------------12-----------12-(12)-12--------------------|
D||---------------------------------------------------------|
A||o--------------------------------------------------------|
E||---------------------------------------------------------|


    E    e         q                S   S  S  S  S  S  E
e|------------------------------------------------------------|
B|-------2---------3----------------2---3---------------------|
G|-------2---------3----------------2---3---------------------|
D|-----------------------------------------5--3-----3--5------|
A|-----------------------------------------------5------------|
E|------------------------------------------------------------|
|
|                        PM--------------------|
|  S  E       S   E      S     S   S   S  S  S  S  S  S  S
e|------------------------------------------------------------|
B|----------------11---------------11--------------11-11s13s==|
G|-10-10------10--10-----10----10------10-10-10-10------------|
D|------------------------------------------------------------|
A|------------------------------------------------------------|
E|------------------------------------------------------------|
|
 |  S  E    a  S  +S   E     a  S  +E      E     Q
e|-----------------------------13-(13)------------------------|
B|--8-11---15s13-(13)-13----13s15-(15)------------------------|
G|-10---------10-(10)-10-------12-(12)------------------------|
D|------------------------------------------------------------|
A|------------------------------------------------------------|
E|------------------------------------------------------------|


   (Gm)          Dm/G
    E    e        q             S   S  S  S  S   S  E
e|----------------------------------------------------------|
B|-------2--------3-------------2---3-----------------------|
G|-------2--------3-------------2---3-----------------------|
D|-------------------------------------5--3------3--5-------|
A|-------------------------------------------5--------------|
E|----------------------------------------------------------|
|
|     PM------------|              PM---|
|  S  E    S     E   S     S   S   S  S  S  S   S  S     S
e|----------------------------------------------------------|
B|-11----------------------11----------------------11h===13-|
G|----10---10----10--10----10------10-10-10-10--10----------|
D|----------------------------------------------------------|
A|----------------------------------------------------------|
E|----------------------------------------------------------|
|
 |  Q          a  E.     a  S  +S   E     S  E.        a  S
e|---------------13-----------------------------------------|
B|------------13s15-----15s13-(13)-11-----------------15s13-|
G|---------------12--------12-(12)-12--------------------12-|
D|----------------------------------------------------------|
A|----------------------------------------------------------|
E|----------------------------------------------------------|


     E        e     q            S   S  S  S  S  S  E
e|---------------------------------------------------------||
B|------------2-----3------------2---3--------------------o||
G|------------2-----3------------2---3---------------------||
D|--------------------------------------5--3-----3--5------||
A|--------------------------------------------5-----------o||
E|---------------------------------------------------------||
|
|   PM------------------|
|   S      E    S  E     S  S   S   E     S  S  S  S   S
e|---------------------------------------------------------||
B|--------------------------11---------------11-------/13-o||
G|--10-----10---10-10----10-10------10----10-10-10-10------||
D|---------------------------------------------------------||
A|--------------------------------------------------------o||
E|---------------------------------------------------------||
|
 |  +S   a  E    S  S  S  S  S  +S   S  E     S  S  S   S
e|---------------------------------------------------------||
B|-(13)-15s13---15-13-11---------------11----13-11-----14-o||
G|-(12)----12------12----12-12-(12)----12----12----12--12--||
D|---------------------------------------------------------||
A|--------------------------------------------------------o||
E|---------------------------------------------------------||


     A        Bb              A    Bb G  F  D  F  G
  Gtr I
   E  e        q                S   S  S  S  S  S  E
      |        |                |   |  |  |  |  |  |
      /        /                /   /  o  o  o  o  o

  Gtr II
      PM---------------------------------|
   E  S  S     S   S  S     S   S   S  S  S  S  S  S   S
e|--------------------------------------------------------|
B|-11-------------------------------------------------/13-|
G|----10-10----10--10-10----10--10--10-10-10-10-10-10-----|
D|--------------------------------------------------------|
A|--------------------------------------------------------|
E|--------------------------------------------------------|
|
 | Gtr IV
 |  W
e|--------------------------------------------------------|
B|--------------------------------------------------------|
G|--------------------------------------------------------|
D|--------------------------------------------------------|
A|--------------------------------------------------------|
E|--------------------------------------------------------|
|
 | Gtr III
 |  Q        a  E.        a  S  +S   E     S  Q
e|----------10s13--------10s13-(13)-----------------------|
B|-------------15-----------15-(15)-11--------------------|
G|-------------12-----------12-(12)-12--------------------|
D|--------------------------------------------------------|
A|--------------------------------------------------------|
E|--------------------------------------------------------|


        A       Bb               A    Bb G  F  D  F  G
   E    e         q                S   S  S  S  S  S  E
        |         |                |   |  |  |  |  |  |
        /         /                /   /  o  o  o  o  o

                         PM--------------------|
   S  E       S   E      S     S   S   S  S  S  S  S  S  S
e|-----------------------------------------------------------|
B|----------------11---------------11--------------11-11s13s=|
G|-10-10------10--10-----10----10------10-10-10-10-----------|
D|-----------------------------------------------------------|
A|-----------------------------------------------------------|
E|-----------------------------------------------------------|
|
 |  H                               Q            E     E
e|-----------------------------------------------------------|
B|-----------------------------------------------------------|
G|-----------------------------------------------------3s====|
D|-----------------------------------------------------------|
A|-----------------------------------------------------------|
E|-----------------------------------------------------------|
|
 |  S  E    a  S  +S   E     a  S  +E      E     Q
e|-----------------------------13-(13)-----------------------|
B|--8-11---15s13-(13)-13----13s15-(15)-----------------------|
G|-10---------10-(10)-10-------12-(12)-----------------------|
D|-----------------------------------------------------------|
A|-----------------------------------------------------------|
E|-----------------------------------------------------------|


           A       Bb           A    Bb G  F  D   F  G
     E     e        q             S   S  S  S  S   S  E
           |        |             |   |  |  |  |   |  |
           /        /             /   /  o  o  o   o  o

         PM------------|              PM---|
     S   E    S     E   S     S   S   S  S  S  S   S  S     S
e||------------------------------------------------------------|
B||o-11-----------------------11----------------------11h===13-|
G||------10---10----10--10----10------10-10-10-10--10----------|
D||------------------------------------------------------------|
A||o-----------------------------------------------------------|
E||------------------------------------------------------------|
|
 |    H.                                       +E      E
e||---------------------------------------------------/6-------|
B||o-----------------------------------------------------------|
G||---5----------------------------------------(5)-------------|
D||------------------------------------------------------------|
A||o-----------------------------------------------------------|
E||------------------------------------------------------------|
|
 |    Q           a  E.     a  S  +S   E     S  E.        a  S
e||-----------------13-----------------------------------------|
B||o-------------13s15-----15s13-(13)-11-----------------15s13-|
G||-----------------12--------12-(12)-12--------------------12-|
D||------------------------------------------------------------|
A||o-----------------------------------------------------------|
E||------------------------------------------------------------|


             A    Bb          A    Bb G  F  D  F  G
    E        e     q            S   S  S  S  S  S  E
             |     |            |   |  |  |  |  |  |
             /     /            /   /  o  o  o  o  o

    PM------------------|
    S      E    S  E     S  S   S   E     S  S  S  S   S
e|---------------------------------------------------------|
B|--------------------------11---------------11-------/13--|
G|--10-----10---10-10----10-10------10----10-10-10-10------|
D|---------------------------------------------------------|
A|---------------------------------------------------------|
E|---------------------------------------------------------|
|
 |  +Q.                   E     +Q.                 E
e|--(6)s==================3-----(3)------------------------|
B|---------------------------------------------------------|
G|--------------------------------------------------3s=====|
D|---------------------------------------------------------|
A|---------------------------------------------------------|
E|---------------------------------------------------------|
|
 |  +S   a  E    S  S  S  S  S  +S   S  E     S  S  S   S
e|---------------------------------------------------------|
B|-(13)-15s13---15-13-11---------------11----13-11-----14--|
G|-(12)----12------12----12-12-(12)----12----12----12--12--|
D|---------------------------------------------------------|
A|---------------------------------------------------------|
E|---------------------------------------------------------|


  1.,2.
      A        Bb              A    Bb G  F  D   F  G
   E   e        q                S   S  S  S  S   S  E
       |        |                |   |  |  |  |   |  |
       /        /                /   /  o  o  o   o  o

       PM---------------------------------|
   E   S  S     S   S  S     S   S   S  S  S  S   S  S   S
e|----------------------------------------------------------|
B|-11---------------------------------------------------/13-|
G|-----10-10----10--10-10----10--10--10-10-10-10--10-10-----|
D|----------------------------------------------------------|
A|----------------------------------------------------------|
E|----------------------------------------------------------|
|
 |  H.                                        +E      E
e|----------------------------------------------------------|
B|----------------------------------------------------------|
G|--5-----------------------------------------(5)-----3-----|
D|----------------------------------------------------------|
A|----------------------------------------------------------|
E|----------------------------------------------------------|
|
 |  Q         a  E.        a  S  +S   E     S  Q
e|-----------10s13--------10s13-(13)------------------------|
B|--------------15-----------15-(15)-11---------------------|
G|--------------12-----------12-(12)-12---------------------|
D|----------------------------------------------------------|
A|----------------------------------------------------------|
E|----------------------------------------------------------|


        A       Bb               A    Bb G  F  D  F  G
   E    e         q                S   S  S  S  S  S  E
        |         |                |   |  |  |  |  |  |
        /         /                /   /  o  o  o  o  o

                         PM--------------------|
   S  E       S   E      S     S   S   S  S  S  S  S  S  S  3x
e|-----------------------------------------------------------||
B|----------------11---------------11--------------11-11s13-o||
G|-10-10------10--10-----10----10------10-10-10-10-----------||
D|-----------------------------------------------------------||
A|----------------------------------------------------------o||
E|-----------------------------------------------------------||
|
 |  Q              Q               +Q.                 E     3x
e|-----------------------------------------------------------||
B|----------------------------------------------------------o||
G|--3s=============0---------------(0)-----------------3-----||
D|-----------------------------------------------------------||
A|----------------------------------------------------------o||
E|-----------------------------------------------------------||
|
 |  S  E    a  S  +S   E     a  S  +E      E     Q           3x
e|-----------------------------13-(13)-----------------------||
B|--8-11---15s13-(13)-13----13s15-(15)----------------------o||
G|-10---------10-(10)-10-------12-(12)-----------------------||
D|-----------------------------------------------------------||
A|----------------------------------------------------------o||
E|-----------------------------------------------------------||


  3.
      A     Bb          A  Bb G  F  D  F  G
   E   e     q           S  S  S  S  S  S  E
       |     |           |  |  |  |  |  |  |
       /     /           /  /  o  o  o  o  o

       PM------------------------|
   E   S  S  S  S  S  S  S  S  S  S  S  S  S   S
e|------------------------------------------------|
B|-11-----------------------------------------/13-|
G|-----10-10-10-10-10-10-10-10-10-10-10-10-10-----|
D|------------------------------------------------|
A|------------------------------------------------|
E|------------------------------------------------|
|
 |  H.                                E     E
e|------------------------------------------------|
B|------------------------------------------------|
G|--5---------------------------------5-----3-----|
D|------------------------------------------------|
A|------------------------------------------------|
E|------------------------------------------------|


        A    Bb       A   Bb G  F  D  F  G
   E    e     q        S   S  S  S  S  S  E
        |     |        |   |  |  |  |  |  |
        /     /        /   /  o  o  o  o  o

                 PM----------------|
   S  E    S  E  S  S  S   S  S  S  S  S  S  S
e|----------------------------------------------||
B|------------11-------11--------------11-11s13-||
G|-10-10---10-10-10-10-----10-10-10-10----------||
D|----------------------------------------------||
A|----------------------------------------------||
E|----------------------------------------------||
|
 |  Q          Q       +Q.                 E
e|----------------------------------------------||
B|----------------------------------------------||
G|--3s=========0-------(0)----------------------||
D|----------------------------------------------||
A|----------------------------------------------||
E|----------------------------------------------||


   G5                 C/G               Dm/A                C/G
   Gtrs I, II
     W                              +W
e|--------------------------------|-------------------------------------|
B|---3----------------------------|-(3)---------------------------------|
G|---0----------------------------|-(0)---------------------------------|
D|---0----------------------------|-(0)---------------------------------|
A|--------------------------------|-------------------------------------|
E|---3----------------------------|-(3)---------------------------------|
|
 | Gtr III
 |   Q   E  S  S  +S   S  E  E  E    S   E  S  E  S  S  +S   S  E  E  E
e|-/13--13--x-13-(13)-12-12-12-12-|--x--13--x-13--x-13-(13)-12-12-12-12-|
B|-/15--15--x-15-(15)-13-13-13-13-|--x--15--x-15--x-15-(15)-13-13-13-13-|
G|-/12--12-12-12-(12)-12-12-12-12-|-14--14-14-14-14-14-(14)-12-12-12-12-|
D|--------------------------------|-------------------------------------|
A|--------------------------------|-------------------------------------|
E|--------------------------------|-------------------------------------|


   G5       Dm/A             C/G
    W
e|------------------------------------|
B|--3---------------------------------|
G|--0---------------------------------|
D|--0---------------------------------|
A|------------------------------------|
E|--3---------------------------------|
|
 |  S  E  S  E  S  S  +S   S  E  E  E
e|-13-13-13-13--x-13-(13)--x-12-12-12-|
B|-15-15-15-15--x-15-(15)--x-13-13-13-|
G|-14-14-12-14-14-14-(14)-14-12-12-12-|
D|------------------------------------|
A|------------------------------------|
E|------------------------------------|


       Dm/A                C/G
   +W
e|-------------------------------------|
B|-(3)---------------------------------|
G|-(0)---------------------------------|
D|-(0)---------------------------------|
A|-------------------------------------|
E|-(3)---------------------------------|
|
 |  S   E  S  E  S  S  +S   S  E  E  E
e|--x--13--x-13--x-13-(13)-12-12-12-12-|
B|--x--15--x-15--x-15-(15)-13-13-13-13-|
G|-14--14-14-14-14-14-(14)-12-12-12-12-|
D|-------------------------------------|
A|-------------------------------------|
E|-------------------------------------|


   (Gm)
   E E q  S S S S S S E   E E q  S S S S S S E
e|----------------------|-----------------------||
B|---2-3--2S3-----------|---2-3--2S3------------||
G|---2-3--2S3-----------|---2-3--2S3------------||
D|------------5-3---3-5-|------------5-3---3-5--||
A|----------------5-----|----------------5------||
E|----------------------|-----------------------||
|
 | W                      W
e|----------------------|-----------------------||
B|----------------------|-----------------------||
G|----------------------|-----------------------||
D|----------------------|-----------------------||
A|----------------------|-----------------------||
E|----------------------|-----------------------||


[7th Verse]

   (Gm)
   Gtr I
   E e q  S    S  S  S S S E
e|---------------------------|
B|---2-3--2----3-------------|
G|---2-3--2----3-------------|
D|----------------5--3---3-5-|
A|---------------------5-----|
E|---------------------------|
|
 | Gtr II
 | H      E      +Q.
e|---------------------------|
B|---------------------------|
G|--------3b5====(3)r========|
D|---------------------------|
A|---------------------------|
E|---------------------------|


    E  e q  S   S S S  S  S E   E e q  S S S S S S E
e|----------------------------|-----------------------|
B|-----2-3--2---3-------------|---2-3--2-3------------|
G|-----2-3--2---3-------------|---2-3--2-3------------|
D|----------------5-3-----3-5-|------------5-3---3-5--|
A|---------------------5------|----------------5------|
E|----------------------------|-----------------------|
|
 | +E  e Q  Q         +Q        Q   Q  H
e|----------------------------|-----------------------|
B|----------------------------|-----------------------|
G|-(3)p0----3b5-------(3)-----|-x---------------------|
D|----------------------------|-----------------------|
A|----------------------------|-----------------------|
E|----------------------------|-----------------------|


   E e    q   S   S S   S S   S E
e|----------------------------------|
B|---2----3---2---3-----------------|
G|---2----3---2---3-----------------|
D|------------------5---3-----3-5---|
A|------------------------5---------|
E|----------------------------------|
|
 |        ~~~
 | E E   +Q   S   S S   S S   S S S
e|----------------------------------|
B|----------------------------------|
G|---5b6-(5)--5b6-5-5b6-5-5b6-5-3p0-|
D|----------------------------------|
A|----------------------------------|
E|----------------------------------|


   E e q  S S S S S S E   E e q  S S S S S S E
e|----------------------|----------------------|
B|---2-3--2-3-----------|---2-3--2-3-----------|
G|---2-3--2-3-----------|---2-3--2-3-----------|
D|------------5-3---3-5-|------------5-3---3-5-|
A|----------------5-----|----------------5-----|
E|----------------------|----------------------|
|
 | W                      W
e|----------------------|----------------------|
B|----------------------|----------------------|
G|----------------------|----------------------|
D|----------------------|----------------------|
A|----------------------|----------------------|
E|----------------------|----------------------|


   (Bb)            (C)             (Gm)
   Gtrs I, II
   S E S +S  S S S S E S +S  S e   E  e  e E  S  S  S  S  S  S  E
e|-----6-(6)-6---6-----8-(8)-8---|---10-10------------------------|
B|-------------------------------|---10-11-x-10-11----------------|
G|-5s7---------7---7s9---------9-|-x---------------12-10----10-12-|
D|-------------------------------|-----------------------12-------|
A|-------------------------------|--------------------------------|
E|-------------------------------|--------------------------------|


   E  E  q   S  S  S  S  S  S  E
e|---10-10-------------------------||
B|---10-11--10-11------------------||
G|----------------12-10----10-12\--||
D|----------------------12---------||
A|---------------------------------||
E|---------------------------------||


[8th Verse]

   (Gm)
   Gtr I
   E e q  S S S   S S S E   E e q  S S S S S     S  E
e|------------------------|------------------------------|
B|---2-3--2-3-------------|---2-3--2-3-------------------|
G|---2-3--2-3-------------|---2-3--2-3-------------------|
D|------------5---3---3-5-|------------5-3-------3--5----|
A|------------------5-----|----------------5-------------|
E|------------------------|------------------------------|
|
 | Gtr II
 |                                                  |3-|
 | H      S S S   S S S E   H      Q       E       +E  S
e|------------------------|----------------8pb10r==(8)p6-|
B|------------------------|------------------------------|
G|----------5-5b6-3-5p3---|------------------------------|
D|----------------------5-|------------------------------|
A|------------------------|------------------------------|
E|------------------------|------------------------------|


   E    e q  S S S S S     S E
e|----------------------------------|
B|------2-3--2-3--------------------|
G|------2-3--2-3--------------------|
D|---------------5-3-------3-5------|
A|-------------------5--------------|
E|----------------------------------|
|
 | S E.   Q  Q       E.        +S
e|-------------------8b10======(8)r=|
B|-8-8------------------------------|
G|----------------------------------|
D|----------------------------------|
A|----------------------------------|
E|----------------------------------|


    E    e   q         S   S  S  S S S E
e|-----------------------------------------|
B|-------2---3---------2---3---------------|
G|-------2---3---------2---3---------------|
D|----------------------------5--3---3-5---|
A|---------------------------------5-------|
E|-----------------------------------------|
|
 | +S  S S S E     S S E     +S  S S S S S
e|-(8)-6-8-6-8b8.5-8-6-8b9r==(8)-6-8-6-----|
B|-------------------------------------8-7-|
G|-----------------------------------------|
D|-----------------------------------------|
A|-----------------------------------------|
E|-----------------------------------------|


   E e q  S S S S S S E   E e q  S S S S S S E
e|----------------------|------------------------|
B|---2-3--2-3-----------|---2-3--2-3-------------|
G|---2-3--2-3-----------|---2-3--2-3-------------|
D|------------5-3---3-5-|------------5-3---3-5---|
A|----------------5-----|----------------5-------|
E|----------------------|------------------------|
|
 | ~
 | E e Q  H               W
e|---6------------------|------------------------|
B|-8--------------------|------------------------|
G|----------------------|------------------------|
D|----------------------|------------------------|
A|----------------------|------------------------|
E|----------------------|------------------------|


   (Bb)          (C)               (Gm)
   Gtrs I, II
   S E S +S  S S S S E S +S  S e   E  E  q   S  S  S  S  S  S  E
e|-----6-(6)-6---6-----8-(8)-8---|---10-10-----------------------|
B|-------------------------------|---10-11--10-11----------------|
G|-5s7---------7---7s9---------9-|----------------12-10----10-12-|
D|-------------------------------|----------------------12-------|
A|-------------------------------|-------------------------------|
E|-------------------------------|-------------------------------|


   E  E  q   S  S  S  S  S  S  E
e|---10-10-------------------------||
B|---10-11--10-11------------------||
G|----------------12-10----10-12\--||
D|----------------------12---------||
A|---------------------------------||
E|---------------------------------||


[9th Verse]

   (Gm)
   Gtr I
   E e q  S S S S S     S  E     E  e q  S S S S  S  S E
e|----------------------------|------------------------------------|
B|---2-3--2-3-----------------|-----2-3--2-3-----------------------|
G|---2-3--2-3-----------------|-----2-3--2-3-----------------------|
D|------------5-3-------3--5--|--------------5-3-----3-5-----------|
A|----------------5-----------|-------------------5----------------|
E|----------------------------|------------------------------------|
|
 | Gtr II
 | H      E   E   E       +E    +H.              +E    S     S
e|----------------8b10====(8)-|-(8)--------------(8)---8pb10-8pb10-|
B|------------6---------------|------------------------------------|
G|----------------------------|------------------------------------|
D|----------------------------|------------------------------------|
A|----------------------------|------------------------------------|
E|----------------------------|------------------------------------|


   E             e           q                         S      S      S     S     S      S      E
e|-------------------------------------------------------------------------------------------------|
B|---------------2-----------3-------------------------2------3------------------------------------|
G|---------------2-----------3-------------------------2------3------------------------------------|
D|-------------------------------------------------------------------5-----3------------3------5---|
A|-------------------------------------------------------------------------------5-----------------|
E|-------------------------------------------------------------------------------------------------|
|
 | S      S      S     S     S      S      S     S     S      S      S     S     S      S      S
e|8pb10==8pb10==8pb10-8pb10-8pb10==8pb10==8pb10-8pb10-8pb10==8pb10==8pb10-8pb10-8pb10==8pb10==8pb10|
B|-------------------------------------------------------------------------------------------------|
G|-------------------------------------------------------------------------------------------------|
D|-------------------------------------------------------------------------------------------------|
A|-------------------------------------------------------------------------------------------------|
E|-------------------------------------------------------------------------------------------------|


   E           e             q                    S S S S S S E
e|----------------------------------------------------------------|
B|-------------2-------------3--------------------2-3-------------|
G|-------------2-------------3--------------------2-3-------------|
D|----------------------------------------------------5-3---3-5---|
A|--------------------------------------------------------5-------|
E|----------------------------------------------------------------|
|
 | S     S     S      S      S      S      S    S S S S S S S S S
e|-8pb10-8pb10-8pb9.5-8pb9.5-8pb9.5-8pb9.5-8pb9-8r8-8-8-8-6-8p6---|
B|--------------------------------------------------------------8-|
G|----------------------------------------------------------------|
D|----------------------------------------------------------------|
A|----------------------------------------------------------------|
E|----------------------------------------------------------------|


   E     e  q   S  S S  S S S E   E e q  S S S S S S E
e|------------------------------|-----------------------|
B|-------2--3---2--3------------|---2-3--2-3------------|
G|-------2--3---2--3------------|---2-3--2-3------------|
D|-------------------5--3---3-5-|------------5-3---3-5--|
A|------------------------5-----|----------------5------|
E|------------------------------|-----------------------|
|
 |       ~~~~~~~~~~
 | E     Q.    +E    E    Q       W
e|-6b6.5-------------6\---------|-----------------------|
B|-------8-----(8)--------------|-----------------------|
G|------------------------------|-----------------------|
D|------------------------------|-----------------------|
A|------------------------------|-----------------------|
E|------------------------------|-----------------------|


   (Bb)          (C)               (Eb)                  (F)
   Gtrs I, II
   S E S +S  S S S S E S +S  S E   S  E  S  +S   S  S  S  S  E  S  +S   S  e
e|-----6-(6)-6---6-----8-(8)-8---|------11-(11)-11----11-------13-(13)-13----|
B|-------------------------------|-------------------------------------------|
G|-5s7---------7---7s9---------9-|-9s12------------12----12s14------------14-|
D|-------------------------------|-------------------------------------------|
A|-------------------------------|-------------------------------------------|
E|-------------------------------|-------------------------------------------|


   (Gm)
   E  E  q   S  S  S  S  S  S  E
e|---10-10--------------------------|
B|---10-11--10-11-------------------|
G|----------------12-10----10-12\---|
D|----------------------12----------|
A|----------------------------------|
E|----------------------------------|


   E  E  e E  S  S  S  S  S  S  E
e|---10-10------------------------|
B|---10-11-x-10-11----------------|
G|-x---------------12-10----10-12-|
D|-----------------------12-------|
A|--------------------------------|
E|--------------------------------|


[Outro]

     (Gm)
     Gtr I
     E E q  S S S S S S E   E E q  S S S S S S E   6x
e||-----------------------|------------------------||
B||o---2-3--2-3-----------|---2-3--2-3------------o||
G||----2-3--2-3-----------|---2-3--2-3-------------||
D||-------------5-3---3-5-|------------5-3---3-5---||
A||o----------------5-----|----------------5------o||
E||-----------------------|------------------------||


   E e q  S S S S S S E   E E q  S S S S S S E
e|----------------------|----------------------|
B|---2-3--2-3-----------|---5-3--2-3-----------|
G|---2-3--2-3-----------|---5-3--2-3-----------|
D|------------5-3---3-5-|------------5-3---3-5-|
A|----------------5-----|----------------5-----|
E|----------------------|----------------------|
|
 | Gtr II
 | W                      W
e|----------------------|----------------------|
B|----------------------|----------------------|
G|----------------------|----------------------|
D|----------------------|----------------------|
A|----------------------|----------------------|
E|----------------------|----------------------|


   E     e        q                  S      S      S      S S     S E
e|--------------------------------------------------------------------------------|
B|-------2--------3------------------2------3-------------------------------------|
G|-------2--------3------------------2------3-------------------------------------|
D|-------------------------------------------------5------3-------3-5-------------|
A|----------------------------------------------------------5---------------------|
E|--------------------------------------------------------------------------------|
|
 | E.      S      S      S     E     S      S      S      S E       S      S
e|-8b10====8pb10==8pb10==8pb10-8b10==8pb10==8pb10==8pb10==8-8b10====8pb10==8pb10==|
B|--------------------------------------------------------------------------------|
G|--------------------------------------------------------------------------------|
D|--------------------------------------------------------------------------------|
A|--------------------------------------------------------------------------------|
E|--------------------------------------------------------------------------------|


    E     e    q        S    S   S      S  S  S     E
e|-----------------------------------------------------------|
B|--------2----3--------2----3-------------------------------|
G|--------2----3--------2----3-------------------------------|
D|-------------------------------5------3-----3-----5--------|
A|-----------------------------------------5-----------------|
E|-----------------------------------------------------------|
|
|                      |----3-----|
| +S   S E    S E    S E      E   E      +S  E       S
e|-(8)r-8-8b10-8-8b10-6-8b10---8---8b10---(8)-8b10====8pb10==|
B|-----------------------------------------------------------|
G|-----------------------------------------------------------|
D|-----------------------------------------------------------|
A|-----------------------------------------------------------|
E|-----------------------------------------------------------|


   E    e   q               S   S S     S S S      E
e|---------------------------------------------------|
B|------2---3---------------2---3--------------------|
G|------2---3---------------2---3--------------------|
D|--------------------------------5-----3---3------5-|
A|----------------------------------------5----------|
E|---------------------------------------------------|
|
 | E.     S E     S S      +S   S E       S E.
e|-8b10---8-8pb10-8-8pb10==(8)r-8-8pb10---8-8pb10====|
B|---------------------------------------------------|
G|---------------------------------------------------|
D|---------------------------------------------------|
A|---------------------------------------------------|
E|---------------------------------------------------|


        E    e   q       S S S S S S E     E   E   q       S S S S S S E
e|---------------------------------------|---------------------------------|
B|-----------2---3-------2-3-------------|-----5---3-------2-3-------------|
G|-----------2---3-------2-3-------------|-----5---3-------2-3-------------|
D|---------------------------5-3---3-5---|---------------------5-3---3-5---|
A|-------------------------------5-------|-------------------------5-------|
E|---------------------------------------|---------------------------------|
|
 |  a  +S  S S S S S S S S S S S S S S S   S S S S S S S S S S S S S S S S
e|-(8)r(8)p6---8p6---6-8p6---6-8p6-------|---------------------------------|
B|-----------8-----8-------8-------8-6h8p|=6---6---6-8p6---6---------------|
G|---------------------------------------|---7---7-------7---7p5-3h5p3---3-|
D|---------------------------------------|-----------------------------5---|
A|---------------------------------------|---------------------------------|
E|---------------------------------------|---------------------------------|


     E E   q       S S   S   S S S E     E   E q  S S S   S   S S E
e|-------------------------------------|---------------------------------|
B|-----5---3-------2-3-----------------|-----5-3--2-3--------------------|
G|-----5---3-------2-3-----------------|-----5-3--2-3--------------------|
D|-----------------------5---3---3-5---|--------------5---3-----3-5------|
A|-----------------------------5-------|----------------------5----------|
E|-------------------------------------|---------------------------------|
|
|                 |---3---|                          |--3--|     |-3-|
| a E S S S S S S E   E   E   S E   S   S S E Q  E   S S   S E   S S S
e|-------------------------------------|--------------9p6---8-6---9p6-8--|
B|-----6-6-6-----6-6---6---6-----------|---------------------------------|
G|-5s7-------4S7-----------------5p==3-|-5p3-----------------------------|
D|-------------------------------------|-----5---------------------------|
A|-------------------------------------|---------------------------------|
E|-------------------------------------|---------------------------------|


   E     E q       S S S S S S E   E   E q     S S S S S S E
e|-------------------------------|---------------------------|
B|-------5-3-------2-3-----------|-----5-3-----2-3-----------|
G|-------5-3-------2-3-----------|-----5-3-----2-3-----------|
D|---------------------5-3---3-5-|-----------------5-3---3-5-|
A|-------------------------5-----|---------------------5-----|
E|-------------------------------|---------------------------|
|
 | S S a E S S S S S e   S E   E   E   e E S S S S S S E   E
e|-6---6h8-6---------------------|---------------------------|
B|---8-------8p6-----------------|---------------------------|
G|---------------7-5s3-----3---5-|-5b6-5---6-5-6-5-3---3-----|
D|-----------------------6-------|-------------------5-----5-|
A|-------------------------------|---------------------------|
E|-------------------------------|---------------------------|


     E E q         S S S   S     S S E
e|-------------------------------------|
B|-----5-3---------2-3-----------------|
G|-----5-3---------2-3-----------------|
D|---------------------5---3-------3-5-|
A|-------------------------------5-----|
E|-------------------------------------|
|
|           |-3-|     |--3--|
| a q   E a S S S E   S S   S a S S E
e|-------------------------------------|
B|-------------------------------------|
G|-3h5-----3h5-3-0-------------3h5-3-0-|
D|---------------------5-3---0---------|
A|-------------------------------------|
E|-------------------------------------|


     E e q     S S S S S S E   E E q  S S S S S S E
e|---------------------------|------------------------|
B|-----2-3-----2-3-----------|---2-3--2-3-------------|
G|-----2-3-----2-3-----------|---2-3--2-3-------------|
D|-----------------5-3---3-5-|------------5-3---3-5---|
A|---------------------5-----|----------------5-------|
E|---------------------------|------------------------|
|
 | a Q   E S S H               W
e|---------------------------|------------------------|
B|---------------------------|------------------------|
G|-3h5-----3h5---------------|------------------------|
D|---------------------------|------------------------|
A|---------------------------|------------------------|
E|---------------------------|------------------------|


     E E q  S S S S S S E   E E q  S S S S S S E   E E q  S S S S S S E
e||-----------------------|----------------------|-----------------------||
B||o---2-3--2-3-----------|---2-3--2-3-----------|---2-3--2-3-----------o||
G||----2-3--2-3-----------|---2-3--2-3-----------|---2-3--2-3------------||
D||-------------5-3---3-5-|------------5-3---3-5-|------------5-3---3-5--||
A||o----------------5-----|----------------5-----|----------------5-----o||
E||-----------------------|----------------------|-----------------------||


                                                                        G5
   E E q  S S S S S S E   E E q  S S S S S S E   E E q  S S S S S S E   W
e|----------------------|----------------------|----------------------|------*|
B|---2-3--2-3-----------|---2-3--2-3-----------|---2-3--2-3-----------|------*|
G|---2-3--2-3-----------|---2-3--2-3-----------|---2-3--2-3-----------|------*|
D|------------5-3---3-5-|------------5-3---3-5-|------------5-3---3-5-|-5----*|
A|----------------5-----|----------------5-----|----------------5-----|-5----*|
E|----------------------|----------------------|----------------------|-3----*|
 

************************************

| x    Dead note
| (n)  Ghost note
| h    Hammer-on
| p    Pull-off
| r    Release
| b    Bend
| pb   Pre-bend
| /    Slide up
| \    Slide down 

************************************
Suggest correction
comments
print report bad tab
5 comments total. Showing first comments.
+2 reply
Filip333 10 wrote on January 25 2009, 04:47 pm

Awesome tab dude! This tune is really groovy

0 reply
Mgkrcks 10 wrote on March 1 2009, 11:33 am

incredible

0 reply
maun 10 wrote on May 27 2009, 11:03 am

nice job!!

guest
You may want to rate the tab now too:
select rating
Wanna post a correction for this tab? Suggest correction